Song name
# A B C D E F G H I J K L M N O P Q R S T U V W X Y Z

Indecent Obsession - Fixing A Broken Heart tab

Title:     Fixing a Broken Heart
Artist:    Indecent Obsession & Mari Hamada
Tabbed by: Gilbert Bumanlag
Tuning:    Standard

Intro:

E---------------------|
B------2---3---0---2--|
G------------------2--|
D----2----------------|
A--0-----0---0---0----|
E---------------------|

Verse:

E-----------0----------------------|
B--0--0--0--0--3--0----------------|
G--2--2-–2--2--2--2--1--1--1h2--1--|
D--2--2--2--------2--2--2--2----2--|
A--0-----------2—-0--2--2--2----2--|
E-----4--2--0--------0--0--0----0--|
                        U


Pre-Chorus:

E-------------------------0--2--|
B--0--0--0--0--2h3--2--3--0--3--|
G--2--2-–2--2--2----2--2--2--2--|
D--2--2--2--2--2----2--------0--|
A--------0--0--0—---0--2--4-----|
E--2--4-------------------------|
            U

Chorus:

E-----------0----------------------|
B--0--0--0--0--3--0----------------|
G--2--2-–2--2--2--2--1--1--1h2--1--|
D--2--2--2--------2--2--2--2----2--|
A--0-----------2—-0--2--2--2----2--|
E-----4--2--0--------0--0--0----0--|
                        U

E-----------------0-----|
B--0--0--0--0--3--0-----|
G--2--2-–2--2--2--2--1--|
D--2--2--2--2--------2--|
A--0-----------2—-4--2--|
E-----4--3--2--------0--|

E--------------|
B--0--0--0--0--|
G--2--2-–2--2--|
D--2--2--2--2--|
A--0-----------|
E-----4--2--0--|

This is played after the 2nd chorus and before the bridge:

E----------------------|
B------0---0---0----2--|
G----------2---2----2--|
D----2--------------2--|
A--0-----0---0---0--0--|
E----------------------|

Bridge:

E--0--2--2-----0~-|
B--0--2--3--0--3~-|
G--0--3--4--2--2~-|
D--2--4--4--2--0~-|
A--2--4--2--0-----|
E--0--2-----------|

-End-

That’s it! 100% accurate.
Tap to rate this tab
# A B C D E F G H I J K L M N O P Q R S T U V W X Y Z