Song name
# A B C D E F G H I J K L M N O P Q R S T U V W X Y Z

Indian Ocean - Bandeh tab

This is a great song by INDIAN OCEAN

the intro chords are

Cm--Ab--Bb---Cm


INTRO
-----

------------------------------------------------|
------4-3-4---------4-3-4-----------------------|
----5-------5-----5-------5---------------------|
------------------------------------------------|
--3-------------3-------------------------------|
------------------------------------------------|


-------------------------------------------|
------4-3-4-----------4-3-4----------------|
----5---------------5----------------------|
--6---------6-----6---------6--------------|
-------------------------------------------|
-------------------------------------------|


---------------------------------------|
-------4-3-4--------4-3-4--------------|
-----3-------3----3-------3------------|
---3------------3----------------------|
---------------------------------------|
---------------------------------------|


Cm

--------Cm
Are ruk ja re bande
---------Ab
are tham ja re bande
----------Bb
ke kudrat has paregi
Cm
hoooo

^These chords repeat throughout the song during verses too.

http://www.indianoceanmusic.com/
Tap to rate this tab
# A B C D E F G H I J K L M N O P Q R S T U V W X Y Z