Guitaretab - guitar tabs
Song name
# A B C D E F G H I J K L M N O P Q R S T U V W X Y Z

Indigenous - Things We Do tab

Indigenous, Things We Do.
Tabbed by Sam, sseibert@twcny.rr.com.
  
Indigenous, Things We Do





All are barcords

e|--11---3----5-----3----353----|
B|--11---3----6-----5----333----|
G|--22---3----5-----5----333----| (Repeat 3 Times)
D|--33---3----7-----5----333----|
A|--33---5----5-----3----555----|
E|--11---3----5-----3----333----|

[ Tab from: http://www.guitaretab.com/i/indigenous/27471.html ]
e|---5--3--1--1-----------|
B|---6--5--3--1-----------|
G|---5--5--3--2-----------|
D|---7--5--3--3-----------| (Repeat 2 Times)
A|---5--3--1--3-----------|
E|---5--3--1--1-----------|

e|--5---3---3----|
B|--6---5---3----|
G|--5---5---3----|  (Repeat Until Song Ends)
D|--7---5---3----|
A|--5---3---5----|
E|--5---3---3----|
 
:: Ultimate Guitar Archive :: 
http://www.ultimate-guitar.com 

Related for Things We Do tab
Things We Do chords by Indigenous