Guitaretab - guitar tabs
Song name
# A B C D E F G H I J K L M N O P Q R S T U V W X Y Z

Indigo Girls - Power Of Two tab

pls... to all those people who post their shits... pls stop it now ok? sorry but this is 
most accurate version... ahahaha feel free to email/message me for your requests, 
and suggestions...

freddie_ledesma_pilapil_jr@yahoo.com

POWER OF TWO - INDIGO GIRLS
Intro:
|---3-----3-----3-----3-----3-----3---1-1---1-1-----3-----3-----3-----3-----3-----3---1-1---1-1-----|
|---3---3-3---1-1---3-3---3-3---3-3---1-1---1-1---3-3---3-3---1-1---3-3---3-3---3-3---1-1---1-1-----|
|---0-x-0---x-2---x-0---x-0---x-0---x-2---x-2---x-0---x-0---x-2---x-0---x-0---x-0---x-2---x-2--x----|
|-----x-----x-3---x-----x-----x-----x-0---x-0---x-----x-----x-3---x-----x-----x-----x-0---x-0--x----|
|-2---x-3---x-----x-3---x-3---x-2---x-----x-----x-2---x-3---x-----x-3---x-3---x-2---x-----x----x----|
|---------------------------------------------------------------------------------------------------|

Verse:
|---------3-----3-----3-----3-----3---1-1---1-1-----3-----3-----3-----3---1-1---1-1---1-1-----3----|
|---3---3-3---1-1---3-3---3-3---3-3---1-1---1-1---3-3---3-3---1-1---3-3---3-3---3-3---1-1---3-3----|
|---0-x-0---x-2---x-0---x-0---x-0---x-2---x-2---x-0---x-0---x-2---x-0---x-3---x-3---x-2---x-0---x--|
|-----x-----x-3---x-----x-----x-----x-0---x-0---x-----x-----x-3---x-----x-----x-----x-0---x-----x--|
|-2---x-3---x-----x-3---x-3---x-2---x-----x-----x-2---x-3---x-----x-3---x-3---x-3---x-----x-----x--|
|-------------------------------------------------------------------------------------------3------|

|---------3-----3-----3-----3-----3---1-1---1-1-----3-----3-----3-----3---1-1---1-1---1-1---1-1-3-3---|
|---3---3-3---1-1---3-3---3-3---3-3---1-1---1-1---3-3---3-3---1-1---3-3---3-3---3-3---1-1---1-1-3-3---|
|---0-x-0---x-2---x-0---x-0---x-0---x-2---x-2---x-0---x-0---x-2---x-0---x-3---x-3---x-2---x-2-2-x-0---|
|-----x-----x-3---x-----x-----x-----x-0---x-0---x-----x-----x-3---x-----x-----x-----x-0---x-0---x-0---|
|-2---x-3---x-----x-3---x-3---x-2---x-----x-----x-2---x-3---x-----x-3---x-3---x-3---x-----x-----x-2---|
|-------------------------------------------------------------------------------------------------3---|
[ Tab from: http://www.guitaretab.com/i/indigo-girls/8722.html ]
Chorus:
|---0-----0-------3-----3-------0-----0---------------------0-----0-------3-----3-------0-----0-------0-----0-------0-----0------|
|---1---1-1-------3---3-3-------1---1-1-------3---3-3-------1---1-1-------3---3-3-------1---1-1-------3-----3-------1---1-1------|
|---0-x-0---x-----3-x-3---x-----2-x-2---x-----4-x-4-4-x-----0-x-0---x-----3-x-3---x-----2-x-2---x-----4-x---4-x-----0-x-0---x----|
|-----x-----x-------x-----x---3---x-3---x-------x-----x-------x-----x-------x-----x---3---x-3---x-3-5---x-6---x-------x-----x----|
|-3---x-3---x-0-3---x-3---x-0-----x-----x-------x-----x-0-3---x-3---x-0-3---x-3---x-0-----x-----x-------x-----x-0-0---x-0---x----|
|-----------------------------------------0-3-----3------------------------------------------------------------------------------|

|-----1-----1-------0-----3-----0-----0-------1-----0-----1-----1---3-----|
|-----1---1-1-------1---3-3---1-1---1-1-------1-----0---1-1---1-1---3-----|
|-----2-x-2---x-----0-x-0---x-0---x-0---x-----2-x---0-x-2---x-2---x-0-----|
|-------x-----x-------x-----x-----x-----x---0---x-----x-----x-----x-0-----|
|-------x-----x---3---x-2---x-0---x-0---x-0-----x-----x-----x-----x-2-----|
|-0-1-----1-----1---------------------------------0-----1-----1-----3-----|

Interlude: Repeat 1st Verse:
Verse:
Chorus:

Adlib: Guitar1 Repeat 1st Verse:
|-8-7--------------------------------5-7-5/7/8-10-8-13-12-10/12----8/7---------------------|
|-----8----------5/6/8-8-x-6-x-6-x-8----------------------------13-8---8/10-10-65-----8-6--|
|-------9-9/10-9-5/7/9-9-x-7-x-7-x-------------------------------------------------7/9-----|
|------------------------------------------------------------------------------------------|
|------------------------------------------------------------------------------------------|
|------------------------------------------------------------------------------------------|

Bridge:
|---1-----0-----1-----1-----3-----0-----0-------1-----0-----1-----1-----0---1-1---1-1-------1-----0-----1-|
|---1---0-0---1-1---1-1---3-3---1-1---1-1-------1---0-0---1-1---1-1---0-0---1-1---1-1-------1---0-0---1-1-|
|---2-x-0---x-2---x-2---x-4---x-0---x-0---x-----2-x-0---x-2---x-2---x-0---x-2---x-2---x-----2-x-0---x-2---|
|-0---x-----x-----x-----x-----x-----x-----x---0---x-----x-----x-----x-----x-0---x-0---x-------x-----x-0---|
|-----x-----x-----x-----x-----x-3---x-3---x-3-----x-----x-----x-----x-----x-----x-----x-------x-----x-----|
|-------0-----1-----1-----3-------------------------0-----1-----1-----0-----------------0-1-----0---------|
Related for Power Of Two tab
Power Of Two chords by Indigo Girls