Song name
# A B C D E F G H I J K L M N O P Q R S T U V W X Y Z

Indk - East Coast Rising tab

Intro/Chorus-Distorted
-----------------------------|
-----------------------------|
13-------13-15-13------------|
13-13-11-13-15-13------------|
11-13-11-11-13-11------------|
---11-9----------------------|

Verse-Lightly Distorted or Clean
11-11-9----------------------|
13-11-9----------------------|
13-12-10---------------------|
13-13-11---------------------|
-----------------------------|
-----------------------------|


tabbed by ethan s
Tap to rate this tab
# A B C D E F G H I J K L M N O P Q R S T U V W X Y Z