Song name
# A B C D E F G H I J K L M N O P Q R S T U V W X Y Z

Indk - Start It Up tab

kk i just figured out the pre-chorus part

part one
e|--------------|
B)--------------|
G)--------------| x4
D)-5-5-4--5-5-2-|
A)-5-5-4--5-5-2-|
E)-3-3-2--3-3-0-|

Part 2
e|---------------------------------------|
B|---------------------------------------|
G|-5-5-5-5-5-5-7-7-7-7-7-7---------------|
D|-5-5-5-5-5-5-7-7-7-7-7-7---------------|
A|-3-3-3-3-3-3-5-5-5-5-5-5--5-5-4--5-5-2-|
E|--------------------------3-3-2--3-3-0-|


This is all i got but mayeb sumone work off this and figure the rest out.
Mat
Tap to rate this tab
# A B C D E F G H I J K L M N O P Q R S T U V W X Y Z