Song name
# A B C D E F G H I J K L M N O P Q R S T U V W X Y Z

Indk - Pole Position tab

Another one for all your bastards. Hint (its in basic)

Intro:
e---------|
B---------|
G--5---7--|
D--5---7--|
A--3---5--|
E---------|

Chorus:
e---------------------------------------------|
B---------------------------------------------|
G----5------7---5--4-------5------7---5--7----|  X2
D-2--5--5---7---5--4---2---5--5---7---5--7----|
A-2--3--5---5---3--2---2---3--5---5---3--5----|
E-0-----3--------------0------3---------------|


Verse:
e---------            e------------|
B---------            B------------|
G--7/---9- X2 third-->G-7---9---12-|
D--x----x-    time    D-x---x---x--|
A--5/---7-            A-5---7---10-|
E---------            E------------|

Then...

e---------       e--------|
B---------       B--------|
G--7/---9- X2    G-7--3---| X2  well call this riff a
D--x----x-       D-7--3---|
A--5/---7-       A-5--5---|
E---------       E--------|

^ that whole thing X2

Then riff A X2

then Chorus riff X2

then the whole verse

then the chorus again


then your done bitch!
Tap to rate this tab
# A B C D E F G H I J K L M N O P Q R S T U V W X Y Z