Guitaretab - guitar tabs
Song name
# A B C D E F G H I J K L M N O P Q R S T U V W X Y Z

Indk - Rent For Sale tab

-------------------------------------------------------------------------------
			     RENT FOR SALE - Indk
-------------------------------------------------------------------------------


intro:
e|-------------------|
B|-------------------|
G|-------------------|
D|--9--7-10---(4x)---|
A|--x--x-x-----------|
E|--7--5-8-----------|

verse:
e|-------------------|
B|-------------------|
G|-------------------|
D|--9--7-10---(4x)---|
A|--9--7-10----------|
E|--7--5-8-----------|

pre-chorus:
e|------------------------|
B|------------------------|
G|-----------7------------|
D|--9-5-7--7-7-7---(4x)---|
A|--9-5-7--7-5-7----------|
E|--7-3-5--5---5----------|

chorus:
e|---------------------------|
B|---------------------------|
G|--7------------------------|
D|--7--7--9--5--(7)---(4x)---|
A|--5--7--9--5--(7)----------|
E|-----5--7--3--(5)----------|
[ Tab from: http://www.guitaretab.com/i/indk/93385.html ]
e|-------------------|
B|-------------------|
G|-------------------|
D|--9--7-10---(4x)---|
A|--x--x-x-----------|
E|--7--5-8-----------|

verse:
e|-------------------|
B|-------------------|
G|-------------------|
D|--9--7-10---(4x)---|
A|--9--7-10----------|
E|--7--5-8-----------|

pre-chorus:
e|------------------------|
B|------------------------|
G|-----------7------------|
D|--9-5-7--7-7-7---(4x)---|
A|--9-5-7--7-5-7----------|
E|--7-3-5--5---5----------|

chorus:
e|-------------------------------|
B|-------------------------------|
G|--7------------------------7---|
D|--7--7--9--5--(7)---(4x)---7---|
A|--5--7--9--5--(7)----------5---|
E|-----5--7--3--(5)--------------|

chorus:
e|---------------------------|
B|---------------------------|
G|--7------------------------|
D|--7--7--9--5--(7)---(4x)---|
A|--5--7--9--5--(7)----------|
E|-----5--7--3--(5)----------|

e|-------------------|
B|-------------------|
G|-------------------|
D|--9--7-10---(4x)---|
A|--x--x-x-----------|
E|--7--5-8-----------|
Related for Rent For Sale tab
Advertisement will be closed in 10 seconds