Song name
# A B C D E F G H I J K L M N O P Q R S T U V W X Y Z

Indochine - Junior Song tab

GUITAR 1

----------------------  X2 ------------------------|
---4--4-4--4-4-4--44-4     ---4-44-4---44-4--4-4-4-|
---4--4-4--4-4-4--44-4     ---4-44-4---44-4--4-4-4-|
---3--3-3--3-3-3--33-3     ---3-33-3---33-3--3-3-3-|
---3--3-3--3-3-3--33-3     ---3-33-3---33-3--3-3-3-|
-0-3--3-3--3-3-3--33-3     -0-3-33-3-0-33-3--3-3-3-|

GUITAR 2                                                   X3

-----------------------------------------------------------  ---------------|
-----------------------------------------------------------  ---------------|
-----------------------------------------------------------  ---------------|
-----------------------------------------------------------  ---------------|
-----------------------------------------------------------  ---------------|
--------------------------------------------------0-5-5-5-1  -0-1-1-1-1-1-1-|
Tap to rate this tab
# A B C D E F G H I J K L M N O P Q R S T U V W X Y Z