Guitaretab - guitar tabs
Song name
# A B C D E F G H I J K L M N O P Q R S T U V W X Y Z

Indochine - Miss Paramount tab

Song:Miss Paramount
Band:Indochine
Album:Le péril jaune

E:-------------------------------------------------------
B:-------------------------------------------------------
G:-----6-----6--------3-----3-----6-----6--------3-----3-
D:--8-----8-----3--5-----5-----8-----8-----3--5-----5----
A:-------------------------------------------------------
E:-------------------------------------------------------

E:------------------------------------------------------------------
B:------------------------------------------------------------------
G:-----5-----4--4-----------------------5-----4--4------------------
D:--3-----3--------3--3--5--5--3--0--3-----3--------3--3--5--5--3--0
A:------------------------------------------------------------------
E:------------------------------------------------------------------


Eb       Bb      Cm       Gm
Dans les bras de Miss Paramount
Eb      Bb     Cm        Gm
Magie noire, Satan mon amour
Eb      Bb         Cm         Gm
Allons voir ce qui se passe ce soir
Eb             Bb          Cm             Gm
Une petite frayeur dans les griffes de la peur
Eb    Bb     Cm        Gm
Avec toi au service du diable
Eb          Bb          Cm           Gm
Main dans la main avec le monstre du train


Eb                 Fm
Elle m'a pincé les bras
Eb              Fm
Quand apparut Ramba
Eb                 Fm
Elle m'a tordu les doigts
Eb             Fm
Assise près de moi


Abm  Fm  Ebm  Ebm

Abm  Fm  Ebm  Ebm

E:------------------------------------------------------------------
B:------------------------------------------------------------------
G:-----5-----4--4-----------------------5-----4--4------------------
D:--3-----3--------3--3--5--5--3--0--3-----3--------3--3--5--5--3--0
A:------------------------------------------------------------------
E:------------------------------------------------------------------

[ Tab from: http://www.guitaretab.com/i/indochine/47812.html ]
Attention ça va commencer
Guerilla des barracudas
C'est effrayant ce qu'il y a sur l'écran
La panique gagne les premiers rangs
Terrifiés devant ce qu'ils voient
Face à face devant ce massacre


Elle m'a pincé les bras
Quand apparut Ramba
Elle m'a tordu les doigts
Assise près de moi


Abm  Fm  Eb   Eb

Abm  Fm  Eb   Eb

Eb   Bb  Cm   Gm

Eb   Bb  Cm   Gm

Eb   Bb  Cm   Gm

Eb   Bb  Cm   Gm


Ma poupée toute épouvanté
Qui se cache les yeux du visage
La prochaine fois on ira plus voir ça
Le jardin des tortures au cinéma
Le baiser pour Miss Paramount
Dans mes bras tout déchirés

E:------------------------------------------------------------------
B:------------------------------------------------------------------
G:-----5-----4--4-----------------------5-----4--4------------------
D:--3-----3--------3--3--5--5--3--0--3-----3--------3--3--5--5--3--0
A:------------------------------------------------------------------
E:------------------------------------------------------------------


Elle m'a pincé les bras
Quand apparut Ramba
Elle m'a tordu les doigts
Assise près de moi


Abm  Fm  Eb   Eb

Abm  Fm  Eb   Eb

E:------------------------------------------------------------------
B:------------------------------------------------------------------
G:-----5-----4--4-----------------------5-----4--4------------------
D:--3-----3--------3--3--5--5--3--0--3-----3--------3--3--5--5--3--0
A:------------------------------------------------------------------
E:------------------------------------------------------------------

E:------------------------------------------------------------------
B:------------------------------------------------------------------
G:-----5-----4--4-----------------------5-----4--4------------------
D:--3-----3--------3--3--5--5--3--0--3-----3--------3--3--5--5--3--0
A:------------------------------------------------------------------
E:------------------------------------------------------------------

Eb   Bb  Cm   Gm

Eb   Bb  Cm   Gm

Eb   Bb  Cm   Gm

Eb   Bb  Cm   Gm
Related for Miss Paramount tab
Miss Paramount chords by Indochine