Song name
# A B C D E F G H I J K L M N O P Q R S T U V W X Y Z

Infected Mushroom - Jeenge tab

Infected Mushroom
Jengee

|-----2-|-----|-----0-----------|-----0-------|
|-2---2-|-----|-2---2---(2-2h3)-|-----0-------|
|---2---|-----|---4-----(4-4--)-|-8-----(8-8)-|
|-------|-----|-----------------|---9---------|
|-------|-----|-0---------------|-------------|
|-2-----|-----|-----------------|-7-----------|

|-----2-|-----|-----0---|-----------|
|-2---2-|-----|-2---2-2-|---------7-|
|---2---|-----|---4-----|-------7---|
|-------|-----|---------|-----5-----|
|-------|-----|---------|---5-------|
|-2-----|-----|-0-------|-7---------| repeat
Tap to rate this tab
# A B C D E F G H I J K L M N O P Q R S T U V W X Y Z