Guitaretab - guitar tabs
Song name
# A B C D E F G H I J K L M N O P Q R S T U V W X Y Z

Infected Mushroom - Becoming Insane tab

For sure 100%

|--------------------------|-----------------------------|
|--------------------------|-----------------------------|
|--------------------------|-----------------------------|
|--2--2--3--3---0--0--3--2-|----2--2--3--3---------3-----|
|--------------------------|-----------------3--2-----2--|
|--------------------------|-----------------------------|
[ Tab from: http://www.guitaretab.com/i/infected-mushroom/187431.html ]
|--------------------------------|----------------------------------|
|--------------------------------|----------------------------------|
|--------------------------------|----------------------------------|
|--------------------------------|----2--2--3--3--0--0--3--2--0--2--|
|---------------3---3------------|----------------------------------|
|--0--0---1--1----------1---0----|----------------------------------|
Related for Becoming Insane tab
Becoming Insane chords by Infected Mushroom