Song name
# A B C D E F G H I J K L M N O P Q R S T U V W X Y Z

Infected Mushroom - Deeply Disturbed tab

Infected Mushroom-Deeply Disturbed

Tabbed by: Emil Shaked
Email:shakedemil@gmail.com


Normal Tuning

Intro:Delay/Echo effect
e|------------------------------------------|X10
B|-----------------------7-----8(~)---------|
G|-----9-----7-----9------------------------|
D|------------------------------------------|
A|--7-----7-----7-----7-----7---------------|
E|------------------------------------------|

(~)=add vibrato sometimes
*release the A string after every note,don't stick your finger on the 7th fret to create 
"jumpy" sound effect.

Chorus:

e|------------------------------------------|x5
B|------------------7-7-8-888-7-------------|
G|-----7-9-999------------------------------|
D|--99---------9-9--------------------------|
A|------------------------------------------|
E|------------------------------------------|
Tap to rate this tab
# A B C D E F G H I J K L M N O P Q R S T U V W X Y Z