Song name
# A B C D E F G H I J K L M N O P Q R S T U V W X Y Z

Infected Mushroom - Shakawkaw tab

-------------------------------------------------------------------------------
			     Shakawkaw - Infected Mushroom
-------------------------------------------------------------------------------
Tabbed by: Meidan Greenberg
Email: Metallic.DreamG@Gmail.com

Tuning: EADGBe

Classic Guitar Riff: (01:44)

e|----------------------|------------------|
B|(4/)6-4-6--4-6--7--4~-|-6-4-6--4-6-9--7~-|
G|----------------------|------------------|
D|----------------------|------------------|
A|----------------------|------------------|
E|----------------------|------------------|

e|----------------------|------------------|
B|(4/)6-4-6--4-6--7--4~-|-6-4-6--4-6-9--7~-|
G|----------------------|------------------|
D|----------------------|------------------|
A|----------------------|------------------|
E|----------------------|------------------|

Play This Fast:
e|-------1-2-4---7~---6~----4~----4----------------4---------------|
B|----4--------------------------7--6--4--3--4----7--6--4--3--4----|
G|-----------------------------------------------------------------|
D|-----------------------------------------------------------------|
A|-----------------------------------------------------------------|
E|-----------------------------------------------------------------|


2nd Time: (02:02)

e|----------------------|------------------|
B|(4/)6-4-6--4-6--7--4~-|-6-4-6--4-6-9--7~-|
G|----------------------|------------------|
D|----------------------|------------------|
A|----------------------|------------------|
E|----------------------|------------------|

e|----------------------|------------------|
B|(4/)6-4-6--4-6--7--4~-|-6-4-6--4-6-9--7~-|
G|----------------------|------------------|
D|----------------------|------------------|
A|----------------------|------------------|
E|----------------------|------------------|


e|-------1-2-4---7~---6~----4~----4----------------4---------------|
B|----4--------------------------7--6--4--3--4----7--6--4--3--4----|
G|-----------------------------------------------------------------|
D|-----------------------------------------------------------------|
A|-----------------------------------------------------------------|
E|-----------------------------------------------------------------|
Tap to rate this tab
# A B C D E F G H I J K L M N O P Q R S T U V W X Y Z