Guitaretab - guitar tabs
Song name
# A B C D E F G H I J K L M N O P Q R S T U V W X Y Z

Ingram Hill - Almost Perfect tab

----------------------------------------------------------------------------
			     Almost Perfect - Ingram Hill
----------------------------------------------------------------------------
Tabbed by: InsanePixie101
Email: InsanePixie101@aol.com

This is the version off of the album June's Picture Show - Any suggestions would be appreciated!


Intro:
    D                 A        D                 A
e|-2----2-----2-0-------------2-----3-----3-0-------------------------------|
B|---3----3-------3---2---2-3---3-----3-------3---2---2-3-------------------|
G|-----2----2-------2---2---------2-----2-------2---2-----------------------|
D|--------------------------------------------------------------------------|
A|--------------------------------------------------------------------------|
E|--------------------------------------------------------------------------|
    D                 A
e|-2-----2-----2-0----------------------------------------------------------|
B|---3-----3-------3---2---2-3----------------------------------------------|
G|-----2-----2-------2---2--------------------------------------------------|
D|--------------------------------------------------------------------------|
A|--------------------------------------------------------------------------|
E|--------------------------------------------------------------------------|


 D          A       Bm        G          D    A      Bm     G
Maybe her eyes are just a little bit red almost all the time,
 D          A       Bm        G            D       A        Bm         G
Maybe her hair it smells like cigarettes when I climb into bed with her at night,
[ Tab from: http://www.guitaretab.com/i/ingram-hill/61140.html ]
 E               G         E                G
She don't wanna try but this just feels so right

(Chorus)
 D      A    Bm    G  D     A    Bm    G          D
Shes almost perfect shes so close to being everything
 A              Bm        G   Bm   G   A
Shes almost perfect but shes not shes not


 D           A       Bm        G       D     A      Bm          G
Maybe she knows she drives me crazy, just bats her eyes like shes my baby
 D           A       Bm        G          D          A            Bm     G
Maybe shes quick to let her tongue fly at me, shes not the most proper lady

 E               G         E                G
She don't wanna try but this just feels so right


 D     A    Bm    G  D     A    Bm    G          D
Shes almost perfect shes so close to being everything
 A              Bm        G   Bm   G   A
Shes almost perfect but shes not shes not


 Em                       A                 G              D      A      Em
I'm the one to blame I know I caused this crash so now I wander in this mess
         A              G                 D         A
Into this lake of sour meshed through my head a notion that


D  A  (4x)


 D           A         Bm        G    D    A    Bm     G
Maybe shes not quite honest with me, almost all the time
 D       A       Bm                G         D       A        Bm         G
Maybe I know theres someone else in her life when I climb into bed with her at night


 D    A    Bm    G  D     A    Bm    G          D
Shes almost perfect shes so close to being everything
 A             Bm        G   Bm   G   A
Shes almost perfect but shes not shes not


D  A (Intro Riff)
Miiiiine  Miiiiiine  Yeah

============================================================================
Related for Almost Perfect tab
Advertisement will be closed in 10 seconds