Song name
# A B C D E F G H I J K L M N O P Q R S T U V W X Y Z

Ingrid Michaelson - The Chain tab

Hey! This is my first, and probably will be my only tab, cause I'm really not talented 
all. This is
basically the piano part transposed to guitar.
Keep in mind, this song is in 6/8

Capo 1st fret, tab relative to capo

____________________________________________________________________________________________

[Intro & Verses 1, 2]

x3

e-----0-0---0-0---0-0---0-0---0-0---0-0---0-0---0-0--|
B-----0-0---0-0---0-0---0-0---0-0---0-0---0-0---0-0--|
G----------------------------------------------------|
D----------------------------------------------------|
A---7-----7-----5-----5------4----4-----3-----3------|
E----------------------------------------------------|
The sky looks pissed, the wind talks back
My room seems wrong, the bed won't fit

e-----0-0---0-0---0-0---0-0---0-0---0-0---0-0---0-0--|
B-----0-0---0-0---0-0---0-0---0-0---0-0---0-0---0-0--|
G----------------------------------------------------|
D----------------------------------------------------|
A---7-----6-----4-----2------0----2-----7-----7------|
E----------------------------------------------------|
My bones are shifting in my skin when you, my love, are gone
I cannot seem to operate when you, my love, are gone


[Chorus x1]

e-----0-0---0-0---0-0---0-0---0-0---0-0---0-0---0-0--|
B-----0-0---0-0---0-0---0-0---0-0---0-0---0-0---0-0--|
G----------------------------------------------------|
D----------------------------------------------------|
A---0-----0-----2-----2------7----6-----4-----2------|
E----------------------------------------------------|
So glide away on soapy heels, and promise not to promise anymore

e-----0-0---0-0---0-0---0-0---0-0---0-0---0-0---0-0--|
B-----0-0---0-0---0-0---0-0---0-0---0-0---0-0---0-0--|
G----------------------------------------------------|
D----------------------------------------------------|
A---0-----0-----2-----2------7----6-----4-----2------|
E----------------------------------------------------|
And if you come around around again then I will take, then I will take

e-----0-0---0-0---0-0---0-0--|
B-----0-0---0-0---0-0---0-0--|
G----------------------------|
D----------------------------|
A---0----2-----7-----7-------|
E----------------------------|
The Chain from off the door

[Verse 3 x1]

e-----0-0---0-0---0-0---0-0---0-0---0-0---0-0---0-0--|
B-----0-0---0-0---0-0---0-0---0-0---0-0---0-0---0-0--|
G----------------------------------------------------|
D----------------------------------------------------|
A---7-----7-----5-----5------4----4-----3-----3------|
E----------------------------------------------------|
I'll never say I'll never love

e-----0-0---0-0---0-0---0-0---0-0---0-0---0-0---0-0--|
B-----0-0---0-0---0-0---0-0---0-0---0-0---0-0---0-0--|
G----------------------------------------------------|
D----------------------------------------------------|
A---7-----6-----4-----2------0----2-----7-----7------|
E----------------------------------------------------|
But I don't say a lot of things when you, my love, are gone


[Chorus and round]

x5

e-----0-0---0-0---0-0---0-0---0-0---0-0---0-0---0-0--|
B-----0-0---0-0---0-0---0-0---0-0---0-0---0-0---0-0--|
G----------------------------------------------------|
D----------------------------------------------------|
A---0-----0-----2-----2------7----6-----4-----2------|
E----------------------------------------------------|
So glide away on soapy heels, and promise not to promise anymore

e-----0-0---0-0---0-0---0-0---0-0---0-0---0-0---0-0--|
B-----0-0---0-0---0-0---0-0---0-0---0-0---0-0---0-0--|
G----------------------------------------------------|
D----------------------------------------------------|
A---0-----0-----2-----2------7----6-----4-----2------|
E----------------------------------------------------|
And if you come around around again then I will take The Chain from off the door


NOTE* If singing the round with 3 parts, then play the chorus once though with one 
add in
parts the second time through. The ending might seem abrupt, but that's cause it's sung 
cappella
the sixth time though. Listen to the song to see how it goes.

Thanks! I hope this works out.
Sarah
Tap to rate this tab
# A B C D E F G H I J K L M N O P Q R S T U V W X Y Z