Song name
# A B C D E F G H I J K L M N O P Q R S T U V W X Y Z

Ingrid Michaelson - Keep Breathing tab

Intro (PART 1) play 4x
e|---------------------------------------------------------------------------|
B|-----0-----0----------------1-----1-----0----------------------------------|
G|----------------2-----2-----------------------0-----0-----0-----0-----0----|
D|---0-----0----0-----0-----0-----0-----0-----0-----4-----4-----4-----4------|
A|------------------------------------------0-----2-----2-----2-----2--------|
E|-3-----3----3-----3-----3-----3-----3--------------------------------------|

e|--------------------------|
B|--------------------------|
G|-----0-----0-----0-----0--|
D|---0-----0-----0-----0----|
A|-3-----3-----3-----3------|
E|--------------------------|

all that i know is i'm breathing...
(PART 2)
e|--------------------------------------------------|
B|-----------------------------3-----3-----3-----3--|
G|-----0-----0-----0-----0---2-----2-----2-----2----|
D|---4-----4-----2-----2---0-----0-----0-----0------|
A|-2-----2-----3-----3------------------------------|
E|--------------------------------------------------|

Play PART 1 3x

Play PART 2 3x, go right into "now...ah ah ah" part
Now....ah ah ah.....
e|--------------------------------------------------|
B|-----------------3-----3-----0-----0-----0-----0--|
G|-----0-----0---2-----2----------------------------|
D|---2-----2---0-----0-------0-----0-----0-----0----|
A|-3-----3------------------------------------------|
E|-------------------------3-----3-----3-----3------|

e|--------------------------------------------------|
B|-----------------3-----3--------------------------|
G|-----0-----0---2-----2-------0-----0-----0-----0--|
D|---2-----2---0-----0-------4-----4-----4-----4----|
A|-3-----3-----------------2-----2-----2-----2------|
E|--------------------------------------------------|

e|--------------------------------------------------|
B|-----------------3-----3-----0-----0--------------|
G|-----0-----0---2-----2-------------------0-----0--|
D|---2-----2---0-----0-------0-----0-----2-----2----|
A|-3-----3-----------------------------3-----3------|
E|-------------------------3-----3------------------|

e|--------------------------------------------------|
B|-----0-----0-----------------3-----3-----3-----3--|
G|-----------------0-----0---2-----2-----2-----2----|
D|---0-----0-----2-----2---0-----0-----0-----0------|
A|-------------3-----3------------------------------|
E|-3-----3------------------------------------------|

All that I know is i'm breathing...All I can do is keep breathing...All we can do is 
breathing....etc. (Play 10x)
   Bm    C     G     D
e|-2-----0-----3-----2------|
B|-3-----1-----0-----3------|
G|-4-----0-----0-----2------|
D|-4-----2-----0-----0------|
A|-2-----3-----2-----0------|
E|-x-----x-----3-----x------|

e|--------------------------------------------------------------------------|
B|-----------------------------3-----3-----3-----3-----3-----3-----3-----3--|
G|-----0-----0-----0-----0---2-----2-----2-----2-----2-----2-----2-----2----|
D|---4-----4-----2-----2---0-----0-----0-----0-----0-----0-----0-----0------|
A|-2-----2-----3-----3------------------------------------------------------|
E|--------------------------------------------------------------------------|

Play intro 1x and end with a C chord
Tap to rate this tab
# A B C D E F G H I J K L M N O P Q R S T U V W X Y Z