Song name
# A B C D E F G H I J K L M N O P Q R S T U V W X Y Z

Inhabited - We Will Live tab

  We Will Live -- Inhabited -- tabbed by andyluvsgitr15


   intro(bass):
   G|----------------------------|
   D|----------------------------|
   A|---2----2--2----2----2--2---|
   E|0-0--0-0--0--0-0--0-0--0----|

   verse 1:
   e|--------------------------------------------------------------------|
   B|--------------------------------------------------------------------|
   G|-4-x-x-4-x-x-4-x-4-x-x-4-x-7-5-4-x-x-4-x-x-4-x-4-x-x-4-x-7-5--------|
   D|-4-x-x-4-x-x-4-x-4-x-x-4-x-7-5-4-x-x-4-x-x-4-x-4-x-x-4-x-7-5--------|
   A|-2-x-x-2-x-x-2-x-2-x-x-2-x-5-3-2-x-x-2-x-x-2-x-2-x-x-2-x-5-3--------|
   E|--------------------------------------------------------------------|

   refrain(bass):

   G|---------------------------------|
   D|---------------------------------|
   A|---------------------------------|
   E|-0-0-0-0-0-0-0-0-0-0-0-0-0-0-0-0-|

   chorus:

   e|--------------------------------------------------------------------|
   B|--------------------------------------------------------------------|
   G|-4-x-x-4-7-7-x-x-x-x-x-x-4-x-4-7-x-x-x-x-x-x-4-4-6-6-7-7-9-9--------|
   D|-4-x-x-4-7-7-5-x-x-5-x-7-4-x-4-7-5-x-x-5-x-7-4-4-6-6-7-7-9-9--------|
   A|-2-x-x-2-5-5-5-x-x-5-x-7-2-x-2-5-5-x-x-5-x-7-2-2-4-4-5-5-7-7--------|
   E|-------------3-x-x-3-x-5---------------3---5------------------------|

   verse 2(starting out w/bass)

   G|---------------------------------|
   D|---------------------------------|
   A|---------------------------------|
   E|-2-2-2-2-2-2-2-3-2-2-2-2-2-2-2-3-|

   ....and then continue with regular guitar and bass....

   e|-------------------------------|
   B|-------------------------------|
   G|-4-x-x-4-x-3-3-4-x-x-4-x-7-5-4-|
   D|-4-x-x-4-x-3-3-4-x-x-4-x-7-5-4-|
   A|-2-x-x-2-x-1-1-2-x-x-2-x-5-3-2-|
   E|-------------------------------|

   refrain(same as before)

   chorus(same as before)

   bridge(there's some bass i think but no guitar)

   ......."la la la la la la la la "..............

   refrain and chorus again

   outro: ........"so much to live for, so much to live for".........

   e|-----------------|
   B|-----------------|
   G|-4-4-6-6-7-7-9-9-|
   D|-4-4-6-6-7-7-9-9-| (x3)
   A|-2-2-4-4-5-5-7-7-|
   E|-----------------|


  And that's it! It sounds right to me but you might want to listen to the song just to 
the beat and such. This is one of my absolute favorite songs from Inhabited. Have fun playing!!
Tap to rate this tab
# A B C D E F G H I J K L M N O P Q R S T U V W X Y Z