Song name
# A B C D E F G H I J K L M N O P Q R S T U V W X Y Z

Inhale Exhale - By Grace tab

-------------------------------------------------------------------------------
			     By Grace - Inhale Exhale
-------------------------------------------------------------------------------
Tabbed by:Guitarist_2006
Email:metal_20066@yahoo.com

Tuning:Drop C
GTR.1
e|------------------------------------------------------------|X4
B|------------------------------------------------------------|
G|------------------------------------------------------------|
D|-----8-----------------------------0------------------------|
A|--------6-5------8--6--5----6--5---0-----5--6--8------------|
E|-00----------00----------00--------0--00--------------------|
PM ..          ..          ..        .  ..

e|--------------------------------------------------------------------|X4
B|--------------------------------------------------------------------|
G|--------------------------------------------------------------------|
D|---------------------------------------------------------5--0-------|
A|----55h6p5-----55h6p5----------------55h6p5------55h6p5--5--0-------|
E|-00---------00----------5--0--3--00----------00----------5--0-------|
PM ..         ..             .     ..          ..             .

e|--------------------------------------------------------------------------------|
B|--------------------------------------------------------------------------------|
G|101010101010----9-9-9-9-9-9-9-9/-----101010101010----9-9-9-9-9-9-9-9-----7---10-|
D|--------------------------------------------------------------------------------|
A|-8-8-8-8-8-8----7-7-7-7-7-7-7-7/------8-8-8-8-8-8----7-7-7-7-7-7-7-7-----7----8-|
E|--------------------------------------------------------------------------------|

e|---------|---------|---------|--------------|
B|---------|---------|---------|--------------|
G|-10------|--7------|-10------|--7-----------|
D|-----X15-|-----X18-|-----X15-|-----X18---00-|
A|--8------|--5------|--8------|--5--------00-|
E|---------|---------|---------|-----------00-|
PM                                         ..

e|-------------|------------|-------------|---------------------------|
B|-------------|------------|-------------|---------------------------|
G|-10----------|--7---------|-10----------|--7---------101010---------|
D|-----X15-0---|-----X18----|-----X15--0--|-----X12--------------12/--|
A|--8------0---|--5---------|--8-------0--|--5----------8-8-8----12/--|
E|---------0---|------------|----------0--|----------------------12/--|
PM         .                           .



| /  slide up
| \  slide down
| h  hammer-on
| p  pull-off
| ~  vibrato
| +  harmonic
| .  Palm Mute
===============================================================================
Tap to rate this tab
# A B C D E F G H I J K L M N O P Q R S T U V W X Y Z