Guitaretab - guitar tabs
Song name
# A B C D E F G H I J K L M N O P Q R S T U V W X Y Z

Inhale Exhale - Fluvanna tab

Fluvanna 
Inhale Exhale

Key: Something dropped (I play it in drop d, but thatís wrong; try drop c or something like that.)
[ Tab from: http://www.guitaretab.com/i/inhale-exhale/117250.html ]
Intro
D|---------------------------------------------------6--6--3--3|
A|-----5h8p5----7--8------5---7--8--------5h8p5--7---6--6--3--3| X 4
D|-0-0--------0--0-----0-0--0--0----0-0-0-------0--0-6--6--3--3|

Verse 1
e|-----------10--|
B|-----------9---|
G|-----------8---|
D|---------------|    X 10
A|3--5-3-2-0-----|
D|3--5-3-2-0-----| 

Bridge
*Tremolo Picked*
e|10--9--7---5--10--15--14---12-| 

Band Website: http://solidstaterecords.com/artists/49/InhaleExhale/
Related for Fluvanna tab