Song name
# A B C D E F G H I J K L M N O P Q R S T U V W X Y Z

Inhale Exhale - Its Myself Vs Being A Man tab

D|-----------------------15-0---------------------------|
A|-12-00-12-00-13-0-12-0--------------------------- ----|
F|------------------------------------------------------| -   - x8 (x4 second time)
C|-------------------------------------------------  ---|
G|------------------------------------------------- ----|
C|------------------------------------------------------|

D|--------------------8-0-----------------------------------|
A|-8-00-8-00-10-0-8-0------------------------------ --------|
F|-------------------------------------------------  -------| x3
C|-------------------------------------------------  -------|
G|------------------------------------------------- --------|
C|----------------------------------------------------------|

D|-------------------------------------------------|
A|-8-00-8-00-10-0-8-0-13-0-------------------------|
F|-------------------------------------------------|
C|-------------------------------------------------|
G|-------------------------------------------------|
C|-------------------------------------------------|


It's pretty simple, but sounds kick ass.
This is my first tab on here, so be nice maybe?
Cool.
Great band, better song.
Email me or check out my myspace
Tap to rate this tab
# A B C D E F G H I J K L M N O P Q R S T U V W X Y Z