Song name
# A B C D E F G H I J K L M N O P Q R S T U V W X Y Z

Inhale Exhale - Sons Of Tomorrow To Noah James tab

-------------------------------------------------------------------------------
	     Sons of Tomorrow(To Noah James) - Inhale/Exhale
-------------------------------------------------------------------------------
Tabbed by:Mingo!

    I couldnt find a tab for this song so i tabed it out.  Ispent a lot of time figuring 
out mainly on the strumming pattern on the chorus.  I am almost 100% sure of everything 
for the strumming.
    You could also take these three chords and strum your own pattern.  Here are the 
chords.

   1.(55570)
   2.(2200x3)
   3.(01233)

  \= Strum down
  /=strum up
  (2x)=play whole section 2 times


Tuning: Normal tuning

Intro
---------------------------------------------------------------------------|
--------5--------5---------------5--------5----------------3--------3------|
-----5--------5---------5-----5--------5---------5------5--------5--------5|
--7--------7---------7-----7--------7---------7------5--------5--------5---|
---------------------------------------------------------------------------|
---------------------------------------------------------------------------|

---------------------------------------------------------------------------|
--------3--------3---------------5--------6--------5--------6---------5h6p5|
-----5--------5--------5------5--------5--------5--------5--------5--------|
--5--------5--------5------3--------3--------3--------3--------3-----------|
---------------------------------------------------------------------------|
---------------------------------------------------------------------------|

--------------------------3--------------------------------------------|
--------5--------6-----------------6--------5--------------------------|
-----5--------5--------5--------5--------5-----------------------------|(2x)
--3--------3--------3--------3--------3--------------------------------|
-----------------------------------------------------------------------|
-----------------------------------------------------------------------|

Chorus
 \    \    \    \ / \   \ /   \/\    \    \    \ / \    \ /   \/\
-5----5----5----5-5-5---5-5---553----3----3----3-3-3----3-3---330----------|
-5----5----5----5-5-5---5-5---553----3----3----3-3-3----3-3---331----------|
-5----5----5----5-5-5---5-5---550----0----0----0-0-0----0-0---002----------|
-7----7----7----7-7-7---7-7---770----0----0----0-0-0----0-0---003----------|
-0----0----0----0-0-0---0-0---00x----x----x----x-x-x----x-x---xx3----------|
--------------------------------3----3----3----3-3-3----3-3---33-----------|
 The first 55570 that is played in the chorus is only played the first time around not 
second time becaue the end plays it when it loops around after the first time.


  \    \    \ / \   \ /    \/\    \    \    \ / \    \ /    \/\
--0----0----0-0-0---0-0----000-{--0----0----0-0-0----0-0----005-}----------|
--1----1----1-1-1---1-1----111-{--1----1----1-1-1----1-1----115-}----------|
--2----2----2-2-2---2-2----222-{--2----2----2-2-2----2-2----225-}----------|
--3----3----3-3-3---3-3----333-{--3----3----3-3-3----3-3----337-}----------|
--3----3----3-3-3---3-3----333-{--3----3----3-3-3----3-3----330-}----------|
-------------------------------{--------------------------------}----------|
                                 (Play this ending first time around and
                                  loop to the start of the chorus)


  \    \    \ / \    \ / \
{-0----0----0-0-0----0-0-0-}---------------------------------------|
{-1----1----1-1-1----1-1-1-}---------------------------------------|
{-2----2----2-2-2----2-2-2-}---------------------------------------|(2x)
{-3----3----3-3-3----3-3-3-}---------------------------------------|
{-3----3----3-3-3----3-3-3-}---------------------------------------|
{--------------------------}---------------------------------------|
 (Play this the second time
  around and finish the chorus)

Verse
---------------------------------------------------------------------------|
--------5--------5---------------5--------5----------------3--------3------|
-----5--------5---------5-----5--------5---------5------5--------5--------5|
--7--------7---------7-----7--------7---------7------5--------5--------5---|
---------------------------------------------------------------------------|
---------------------------------------------------------------------------|

---------------------------------------------------------------------------|
--------3--------3---------------5--------6--------5--------6---------5h6p5|
-----5--------5--------5------5--------5--------5--------5--------5--------|
--5--------5--------5------3--------3--------3--------3--------3-----------|
---------------------------------------------------------------------------|
---------------------------------------------------------------------------|


{-------------------------3------------------}-{-----------------3-----|
{-------5--------6-----------------6--------5}-{-----5-----6-----------|
{----5--------5--------5--------5--------5---}-{---5-----5-----5-------|(2x)
{-3--------3--------3--------3--------3------}-{-3-----3-----3---------|
{--------------------------------------------}-{-----------------------|
{--------------------------------------------}-{-----------------------|
 (Play this endind first time arond)            (Play this ending the
                                                 the second time around)

Chorus
 \    \    \    \ / \   \ /   \/\    \    \    \ / \    \ /   \/\
-5----5----5----5-5-5---5-5---553----3----3----3-3-3----3-3---330----------|
-5----5----5----5-5-5---5-5---553----3----3----3-3-3----3-3---331----------|
-5----5----5----5-5-5---5-5---550----0----0----0-0-0----0-0---002----------|
-7----7----7----7-7-7---7-7---770----0----0----0-0-0----0-0---003----------|
-0----0----0----0-0-0---0-0---00x----x----x----x-x-x----x-x---xx3----------|
--------------------------------3----3----3----3-3-3----3-3---33-----------|
 The first 55570 that is played in the chorus is only played the first time around not 
second time becaue the end plays it when it loops around after the first time.


  \    \    \ / \   \ /    \/\    \    \    \ / \    \ /    \/\
--0----0----0-0-0---0-0----000-{--0----0----0-0-0----0-0----005-}----------|
--1----1----1-1-1---1-1----111-{--1----1----1-1-1----1-1----115-}----------|
--2----2----2-2-2---2-2----222-{--2----2----2-2-2----2-2----225-}----------|
--3----3----3-3-3---3-3----333-{--3----3----3-3-3----3-3----337-}----------|
--3----3----3-3-3---3-3----333-{--3----3----3-3-3----3-3----330-}----------|
-------------------------------{--------------------------------}----------|
                                 (Play this ending first time around and
                                  loop to the start of the chorus)


  \    \    \ / \    \ / \
{-0----0----0-0-0----0-0-0-}---------------------------------------|
{-1----1----1-1-1----1-1-1-}---------------------------------------|
{-2----2----2-2-2----2-2-2-}---------------------------------------|(2x)
{-3----3----3-3-3----3-3-3-}---------------------------------------|
{-3----3----3-3-3----3-3-3-}---------------------------------------|
{--------------------------}---------------------------------------|
 (Play this the second time
  around and finish the chorus)


Outro
---------------------------------------------------------------------------|
--------5--------5---------------5--------5----------------3--------3------|
-----5--------5---------5-----5--------5---------5------5--------5--------5|
--7--------7---------7-----7--------7---------7------5--------5--------5---|
---------------------------------------------------------------------------|
---------------------------------------------------------------------------|

---------------------------------------------------------------------------|
--------3--------3---------------5--------6--------5--------6---------5h6p5|
-----5--------5--------5------5--------5--------5--------5--------5--------|
--5--------5--------5------3--------3--------3--------3--------3-----------|
---------------------------------------------------------------------------|
---------------------------------------------------------------------------|


--------------------------3------------------------------------------------|
--------5--------6---------------------------------------------------------|
-----5--------5--------5---------------------------------------------------|
--3--------3--------3------------------------------------------------------|
---------------------------------------------------------------------------|
---------------------------------------------------------------------------|

Enjoy!
Tap to rate this tab
# A B C D E F G H I J K L M N O P Q R S T U V W X Y Z