Guitaretab - guitar tabs
Song name
# A B C D E F G H I J K L M N O P Q R S T U V W X Y Z

Inkubus Sukkubus - Beltaine tab

#------------------------------------PLEASE  NOTE----------------------------------------------#
#This file is the author's own work and represents their interpretation of the #
#song. You may only use this file for private study, scholarship, or research#
#----------------------------------------------------------------------------------------------#

G: Inkubus Sukkubus - Beltaine

Tabbed Friday, Mar 14 2008


Band   Inkubus Sukkubus
Album: Belladonna & Aconite
Song:  Beltaine
 
Transcribed By: Elathen
Email:         myfreezingmoon@yahoo.com


. - palm mute / - slide up to
 - slide down to ~ - vibrato
h - hammer on p - pull off
, - slight palm mute () - ghost note, sustained note
" " tremolo note <> - Trill

Suffixes for bend
f - full bend h - half bend
ph - pinched harmonic q - quarter bend
t - tap bend * - see comment
^ - Hold bend r - release bend
x  Staccato ~ - vibrato bend

Tuning E A D G B E
[ Tab from: http://www.guitaretab.com/i/inkubus-sukkubus/105178.html ]
Intro                                
|-------------------------------|
|-------------------------------| 
|--7-7--7-7--7-7--7-7--7-7------| 
|--7-7--7-7--7-7--7-7--7-7------|  
|-5-5--5-5--5-5--5-5--5-5------|
|-5-5--5-5--5-5--5-5--5-5------|
                               x1
Riff 1
|-----------------------------------------------------|
|-----------------------------------------------------| 
|----------------------(x2)-7^7-/5\-7--7-7-7(x2)--| 
|-7^7-/5\-7--7-7-7-----5^-5--/3\-5--5-5-5-------|  
|-5^-5--/3\-5--5-5-5--------------------------------|
|----------------------------------------------------|

Riff 1b
--------------------------------------------|
--------------------------------------------|
---------5---------(x2)-------7--------(x2)-|
--5-5-5--5--5-5-5-------7^-7--7--7-7-7-----|
--3-3-3--3--3-3-3-------5^-5--5--5-5-5------|
--------------------------------------------|
                                           x3
Riff 2
|-----------6-6-6-----------------6-5-6-6--|
|-88-8-8---5-5-5---8-8-/6\-8-8---5-5-5-5--| 
|-77-7-7---3-3-3---7-7-/5\-7-7---3-3-3-3--| 
|-5-5-5-5-----------5-5-/3\-5-5------------|  
|-------------------------------------------|
|-------------------------------------------|
                                           x1
Riff 3                                         
|-----------------------------------------------------|
|-----------------------------------------------------|
|-----------------------------------------------------|
|10"---10-9-7-7-7-7-------------8-8-8-8-8--9-9-9--|
|-8"---8--7---5-5-5-5---8-8-8-8---6-6-6-6-6--7-7-7--|
|-------------------------6-6-6-6---------------------|
                                                     x1
Repeat the same pattern and so on...

Outro chord.
|------|
|------|
|--7---|
|--7---| 
|--5---|
|-5---|

Related for Beltaine tab