Song name
# A B C D E F G H I J K L M N O P Q R S T U V W X Y Z

Inme - Thanks For Leaving tab

Help us improve GuitareTab! Take a short survey!
-------------------------------------------------------------------------------
			     Thanks For Leaving - InMe
-------------------------------------------------------------------------------
Tabbed by:ekanni
Email:ekanni@gmail.com

Tuning: Standard

I think this is pretty accurate to the intro of this song. 

For the timing, listen and play along with the song. Enjoy :)

e|-14-----14-----12-----12----12-----10-----10-----9-----9-----9-------------|
B|----0------0------0-----0------0------0------0-----0-----0-----0-----------|
G|------0------0------0-----0------0------0------0-----0-----0-----0---------|
D|---------------------------------------------------------------------------|
A|---------------------------------------------------------------------------|
E|---------------------------------------------------------------------------|

e|-14-----15-----12-----12-----12-----14--10-----12-----9-----9-----9--------|
B|----0------0------0------0------0----------0------0-----0-----0-----0------|
G|------0------0------0------0------0----------0------0-----0-----0-----0----|
D|---------------------------------------------------------------------------|
A|---------------------------------------------------------------------------|
E|---------------------------------------------------------------------------|

e|-------9----------7------------------5---------4---------------------------|
B|---7-----7----7-----7---7---7----7-----7---7-----7---7---7-----------------|
G|-7---7------7---7-----7---7----7---7-----7---7-----7---7-------------------|
D|---------------------------------------------------------------------------|
A|---------------------------------------------------------------------------|
E|---------------------------------------------------------------------------|

e|-------7---------5-------------------3---------2---------------------------|
B|---0-----0---0-----0---0---0-----0-----0---0-----0---0---0-----------------|
G|-5---5-----5---5-----5---5-----5---5-----5---5-----5---5-------------------|
D|---------------------------------------------------------------------------|
A|---------------------------------------------------------------------------|
E|---------------------------------------------------------------------------|

e|-------5---------2-----2h3p2----------5---------2---3----------------------|
B|---3-----3---3-----3---------3----3-----3---3-----3---0--------------------|
G|-0---0-----0---0-----0----------0---0-----0---0---------0------------------|
D|---------------------------------------------------------------------------|
A|---------------------------------------------------------------------------|
E|---------------------------------------------------------------------------|

e|-------7---------5-------------------7---------8---------------------------|
B|---0-----0---0-----0---0---0-----0-----0---0-----0---0---0-----------------|
G|-5---5-----5---5-----5---5-----8---8-----8---8-----8---8-------------------|
D|---------------------------------------------------------------------------|
A|---------------------------------------------------------------------------|
E|---------------------------------------------------------------------------|

e|-----------0-----------------------0----------------0------0----|let the
B|---7---7---9---9---9---9---7---7---9---9---9---9----9---9--9----|last chord
G|-9---9---9---9---9---9---9---9---9---9---9---9----9---9----9----|ring and
D|----------------------------------------------------------------|strum
A|----------------------------------------------------------------|softly into
E|----------------------------------------------------------------|a repeat.


| /  slide up
| \  slide down
| h  hammer-on
| p  pull-off
| ~  vibrato
| +  harmonic
| x  Mute note
===============================================================================
Related for Thanks For Leaving tab