Guitaretab - guitar tabs
Song name
# A B C D E F G H I J K L M N O P Q R S T U V W X Y Z
Home / I / Inme / Natural tab

Inme - Natural tab

E|---------------------------------------------------------------|
B|---------------------------------------------------------------|
G|----------------------------4444444----------------------------|
D|---77777777--3333---------------555555555555--10101010--9999---|  x2
A |---77777777--3333---------------555555555555--10101010--9999--|
D|---77777777--3333---------------555555555555--10101010--9999---|
                                                                                        
R 10TH FRET
E|---------------------------------------------------------------------------|
B|---------------------------------------------------------------------------|
G|---------------------------------------------------------------------------|
D|--7777---3333--33--5555--10101010121212129999-----0------------------------|
A|--7777---3333--33--5555--10101010121212129999----1-------------------------|  X2
D|--7777---3333--33--5555--10101010121212129999--1---------------------------|
[ Tab from: http://www.guitaretab.com/i/inme/121534.html ]
THEN BACK TO THE BEGINNING PLAY IT LIKE USUAL
E|---------------------------------------------------------------|
B|---------------------------------------------------------------|
G|----------------------------4444444----------------------------|
D|---77777777--3333---------------555555555555--10101010--9999---|  x2
A |---77777777--3333---------------555555555555--10101010--9999--|
D|---77777777--3333---------------555555555555--10101010--9999---|
                                                                                        
R 10TH FRET
E|----------------------------------------------------------|
B|----------------------------------------------------------|
G|----------------------------------------------------------|
D|--7777---3333--33--5555--10101010121212129999------0---0--|
A|--7777---3333--33--5555--10101010121212129999----1 ---1---|   X2
D|--7777---3333--33--5555--10101010121212129999--1---1------|

E|---------------------------------------------------------------|
B|---------------------------------------------------------------|
G|----------------------------4444444----------------------------|
D|---77777777--3333---------------555555555555--10101010--9999---|  X4
A |---77777777--3333---------------555555555555--10101010--9999--|
D|---77777777--3333---------------555555555555--10101010--9999---|
                                                                                        
R 10TH FRET
E|---------------------------------------------|
B|---------------------------------------------|
G|---------------------------------------------|
D|---------------------------------------------|
A|6-6---4-4---3-3---1-1---1-1---1-1------------|
D|6-6---4-4---3-3---1-1---1-1---1-1------------|

E|---------------------------------------------------------------|
B|---------------------------------------------------------------|
G|----------------------------4444444----------------------------|
D|---77777777--3333---------------555555555555--10101010--9999---|  X4
A |---77777777--3333---------------555555555555--10101010--9999--|
D|---77777777--3333---------------555555555555--10101010--9999---|
                                                                                        
R 10TH FRET

RIGHT THINK THATS IT DUNNO THO THATS HOW I PLAY I PLAY IT ONI MY SECOND TAB SO GO EASY LOL
Related for Natural tab
×
Natural