Song name
# A B C D E F G H I J K L M N O P Q R S T U V W X Y Z

Inme - Happy To Disappoint You tab

Help us improve GuitareTab! Take a short survey!
Song: Happy To Disappoint You
Artist: InME
Album: Herald Moth

e|------------------------|-----------------------|-------------------------------------|
b|------------------------|-------5h7p8-----------|-------------------------11--10--9---|
g|-----4-----6-6h7p-------|-----4------5h7p8------|-----4-----6-6h7p--------13b-12b-11b-|
d|-------5-7--------4-7-5-|-7-5--------------5h7p-|-------5-7--------4-7-5--------------|
a|-7-5--------------------|-----------------------|-7-5---------------------------------|
E|------------------------|-----------------------|-------------------------------------|
   . .   . .                . .                     . .   . .

Intro

e|------------------------------------------------------------------------------|
b|------------------------------------------------------------------------------|
g|----------------------------8h12-8h12-----------------------------------------|
d|-------------------7h11-7h11----------7h11-7h11-------------------------------|
a|---------6h10-6h10------------------------------6h10-6h10---------------------|
E|-5h9-5h9---------------------------------------------------0-4h7-0-4h7-0-4h7--|
    .   .   .    .    .    .    .    .   .    .    .    .  

e|------------------------------------------------------------------------------|
b|------------------------------------------------------------------------------|
g|----------------------------8h12-8h12-----------------------------------------|
d|-------------------7h11-7h11----------7h11-7h11-------------------------------|
a|---------6h10-6h10------------------------------6h10-6h10---------------------|
E|-5h9-5h9---------------------------------------------------0-4h7-0-4h7-0-4h7--|
    .   .   .    .    .    .    .    .   .    .    .    .  

e|---------------------------------------------------------------|
b|---------------------------------------------------------------|
g|---------------------------------------------------------------|
d|-7h9-9-9-5h7-7-7---7-11-8--------------------------------------|
a|---------------------------------------------------------------|
E|-----------------------------0-4h7-0-4h7-0-4h7-----------------|
       . .     . .   
e|-------------------------------------------------------------------------------------------|
b|-------------------------------------------------------------------------------------------|
g|-----------------------------8h12-8h12-------------------------13b 13b 10------13b-13b-10--|
d|-------------------7h11-7h11-----------7h11-7h11-----------0-0-------------0-0-------------|
a|---------6h10-6h10-------------------------------6h10-6h10---------------------------------|
E|-5h9-5h9-----------------------------------------------------------------------------------|
    .   .   .    .    .    .    .    .    .    .     .   .   . .             . .              
 
Verse

e|----------|----------|------------|----------------------------|
b|----------|----------|------5/9---|--12b-10--------------------|
g|-----5/9--|----------|----7-------|---------12-10-9------------|
d|---7------|---7--8---|--5---------|----------------------------|
a|-5--------|-5--------|------------|----------------------------|
E|----------|----------|------------|----------------------------|


e|---------------------------------------------------------------|
b|---------------------------------------------------------------|
g|---------------------------------------------------------------|
d|---------------------------------------------------------------|
a|---------------------------------------------------------------|
E|---------------------------------------------------------------|


Chorus

e|----------------------|---5-7b-----------13b-10-12-|--------------------|
b|-8-8-8----------------|-7------5-------------------|-8-8-8--------------|
g|-------5---5---5-7----|----------7-----------------|-------5---5---5-7--|
d|---------7---7---5----|------------5/7-------------|---------7---7---5--|
a|----------------------|----------------------------|--------------------|
E|----------------------|----------------------------|--------------------|

e|---5-7b-5-----------13b-10-12-|---------------------|-------------------|
b|-7--------7-5-----------------|-8-8-8---------------|-5-7-8-7-5-3/5-7---|
g|--------------7---------------|-------5---5---5-7---|-------------------|
d|----------------3/5-----------|---------7---7---5---|-------------------|
a|------------------------------|---------------------|-------------------|
E|------------------------------|---------------------|-------------------|
  

    T      T        T         T         T        T        T
e|------------------------------------------------------------------|
b|-10-7h8--10-7h8---12-9h10--12-9h10---13-10h12-13-10h12--15-10h13--|
g|------------------------------------------------------------------|
d|------------------------------------------------------------------|
a|------------------------------------------------------------------|
E|------------------------------------------------------------------|

    T         T         T      T        T        T       T
e|------------10-6h8--10-6h8--12-8h10--12-8h10--13-10h12-13-10h12---|
b|--15-10h13--------------------------------------------------------|
g|------------------------------------------------------------------|
d|------------------------------------------------------------------|
a|------------------------------------------------------------------|
E|------------------------------------------------------------------|

Verse

e|----------|----------|------------|----------------------------|
b|----------|----------|------5/9---|--12b-10--------------------|
g|-----5/9--|----------|----7-------|---------12-10-9------------|
d|---7------|---7--8---|--5---------|----------------------------|
a|-5--------|-5--------|------------|----------------------------|
E|----------|----------|------------|----------------------------|

    T                    T          T            T          T
e|--5-2h4-2h4--|   |--8-2h4-2h4--7-2h4-2h4-|   |-7-2h4-2h4--5-2h4-2h4--|
b|-------------|   |-----------------------|   |-----------------------|
g|-------------|   |-----------------------|   |-----------------------|
d|-------------|   |-----------------------|   |-----------------------|
a|-------------|   |-----------------------|   |-----------------------|
E|-------------|x4 |-----------------------|x2 |-----------------------|x2


    T       T       T      T       T        T        T        T
e|--8-4h7---8-4h7---8-4h7--8-4h7---10-6h9---10-6h9---10-6h9---10-6h9--|
b|--------------------------------------------------------------------|
g|--------------------------------------------------------------------|
d|--------------------------------------------------------------------|
a|--------------------------------------------------------------------|
E|--------------------------------------------------------------------|


Chorus

e|----------------------|---5-7b-----------13b-10-12-|--------------------|
b|-8-8-8----------------|-7------5-------------------|-8-8-8--------------|
g|-------5---5---5-7----|----------7-----------------|-------5---5---5-7--|
d|---------7---7---5----|------------5/7-------------|---------7---7---5--|
a|----------------------|----------------------------|--------------------|
E|----------------------|----------------------------|--------------------|

e|---5-7b-5-----------13b-10-12-|---------------------|-------------------|
b|-7--------7-5-----------------|-8-8-8---------------|-5-7-8-7-5-3/5-7---|
g|--------------7---------------|-------5---5---5-7---|-------------------|
d|----------------3/5-----------|---------7---7---5---|-------------------|
a|------------------------------|---------------------|-------------------|
E|------------------------------|---------------------|-------------------|

    T      T        T         T         T        T        T
e|------------------------------------------------------------------|
b|-10-7h8--10-7h8---12-9h10--12-9h10---13-10h12-13-10h12--15-10h13--|
g|------------------------------------------------------------------|
d|------------------------------------------------------------------|
a|------------------------------------------------------------------|
E|------------------------------------------------------------------|

    T         T         T      T        T        T       T
e|------------10-6h8--10-6h8--12-8h10--12-8h10--13-10h12-13-10h12---|
b|--15-10h13--------------------------------------------------------|
g|------------------------------------------------------------------|
d|------------------------------------------------------------------|
a|------------------------------------------------------------------|
E|------------------------------------------------------------------|


Breakdown


e|------------------------------------------------------------------------------|
b|------------------------------------------------------------------------------|
g|----------------------------8h12-8h12-----------------------------------------|
d|-------------------7h11-7h11----------7h11-7h11-------------------------------|
a|---------6h10-6h10------------------------------6h10-6h10---------------------|
E|-5h9-5h9---------------------------------------------------0-4h7-0-4h7-0-4h7--|

e|------------------------------------------------------------------------------|
b|------------------------------------------------------------------------------|
g|----------------------------8h12-8h12-----------------------------------------|
d|-------------------7h11-7h11----------7h11-7h11-------------------------------|
a|---------6h10-6h10------------------------------6h10-6h10---------------------|
E|-5h9-5h9---------------------------------------------------0-4h7-0-4h7-0-4h7--|
    
e|--------------------------------------------------12h15-12h15-----------------------|
b|--------------------------------------10h13-10h13------------10h13-10h13------------|
g|----------------------------8h12-8h12------------------------------------8h12-8h12--|
d|-------------------7h11-7h11--------------------------------------------------------|
a|---------6h10 6h10------------------------------------------------------------------|
E|-5h9-5h9----------------------------------------------------------------------------|

e|--------------------|
b|--------------------|
g|--------------------|
d|--------------------|
a|--0-0-0-0-0-0-0-----|
E|--0-0-0-0-0-0-0-----|
    . . . . . . .

e|-12h15-12h15-----------------------------------------------------|
b|-------------11h14-11h14-----------------------------------------|
g|-------------------------9h12-9h12-------------------------------|
d|-----------------------------------8h11-8h11---------------------|
a|---------------------------------------------7h10-7h10-----------|
E|-------------------------------------------------------7h10-7h10-|

e|-----------------------------------------------------------------|
b|-5h8-5h8-5h8-5h8-5h8-5h8-5h8-4h7-4h7-4h7-4h7-4h7-4h7-4h7---------|
g|-----------------------------------------------------------------|
d|-----------------------------------------------------------------|
a|-----------------------------------------------------------------|
E|-----------------------------------------------------------------|


e|-----------------------------------------------------------------|
b|-5h8-5h8-5h8-5h8-5h8-5h8-5h8-7h10-7h10-7h10-7h10-7h10-7h10-7h10--|
g|-----------------------------------------------------------------|
d|-----------------------------------------------------------------|
a|-----------------------------------------------------------------|
E|-----------------------------------------------------------------|

e|-----------------------------------------------------------------|
b|-9h5-9h5-9h5-9h5-9h5-9h5-9h5-------------------------------------|
g|-----------------------------9h5-9h5-9h5--7h11-7h11-7h11---------|
d|-----------------------------------------------------------------|
a|-----------------------------------------------------------------|
E|-----------------------------------------------------------------|

e|-----------------------------------------------------------------|
b|-9h5-9h5-9h5-9h5-9h5-9h5--7h11-7h11-7h11-7h11-7h11-7h11----------|
g|-----------------------------------------------------------------|
d|-----------------------------------------------------------------|
a|-----------------------------------------------------------------|
E|-----------------------------------------------------------------|


e|---------------------------------------------------------------------|
b|--8h12-8h12-8h12-8h12-8h12-8h12-10h14-10h14-10h14-10h14-10h14-10h14--|
g|---------------------------------------------------------------------|
d|---------------------------------------------------------------------|
a|---------------------------------------------------------------------|
E|---------------------------------------------------------------------|

e|--------------------------------------------------------------------|
b|--10h13-10h13-10h13-10h13-10h13-10h13-10h13-10h13-10h13-10h13-------|
g|--------------------------------------------------------------------|
d|--------------------------------------------------------------------|
a|--------------------------------------------------------------------|
E|--------------------------------------------------------------------|

e|--------------------------------------------------------------------|
b|--9h12-9h12-9h12-9h12-9h12--9h12-9hh12-8h11-8h11-7h10-7h10----------|
g|--------------------------------------------------------------------|
d|--------------------------------------------------------------------|
a|--------------------------------------------------------------------|
E|--------------------------------------------------------------------|

e|-----------------------------|
b|--5h8 5h8-5h7-5h7-3h5-3h5----|
g|-----------------------------|
d|-----------------------------|
a|-----------------------------|
E|-----------------------------|

e|---------------------------------------------------------------|
b|---------------------------------------------------------------|
g|---------------------------------------------------------------|
d|---------------------------------------------------------------|
a|-----6/5---------9/8--------12/11---------15/14----------------|
E|-7-7-7/6--10-10-10/9--13-13-13/12---16-16-16/15----------------|


e|-----------------------------------------------------------------------|
b|-----------------------------------------------------------------------|
g|-----------------------------------------------------------------------|
d|-----------------------------------------------------------------------|
a|-----6/5---------9/8--------12/11---------15/14------------------------|
E|-7-7-7/6--10-10-10/9--13-13-13/12---16-16-16/15-0-12b-0-0-12-12b-0-12--|


e|---------------------------------------------------------------|
b|---------------------------------------------------------------|
g|---------------------------------------------------------------|
d|---------------------------------------------------------------|
a|-----6/5---------9/8--------12/11---------15/14----------------|
E|-7-7-7/6--10-10-10/9--13-13-13/12---16-16-16/15----------------|


e|---------------------------------------------------------------|
b|---------------------------------------------------------------|
g|---------------------------------------------------------------|
d|---------------------------------------------------------------|
a|-----6/7------9/10-------15-15--------17-17--------------------|
E|-5-5-5/6--8-8-8/9--12-12-12-12--12-12-12-12--------------------|


Solo
                                      NH NH NH NH  NH NH NH NH
e|-5/7-12---16b-14---------------------------5--5----------------------|
b|-----------------17-12-14-9-10\5----5--5----------5--5--7--5---------|
g|---------------------------------------------------------------------|
d|---------------------------------------------------------------------|
a|---------------------------------------------------------------------|
E|---------------------------------------------------------------------|

e|---------------------------------------------------------------------|
b|5h7-2-0-----/10---5/8-10---12-12b10-10b8-5/7-------------------------|
g|--------2------------------------------------------------------------|
d|---------------------------------------------------------------------|
a|---------------------------------------------------------------------|
E|---------------------------------------------------------------------|

  T       T       T       T        T       T       T       T
e|----------------7 5p0---9-5p0--||----------------7-5p0---9-5p0--|
b|9 5p0---7-5p0------------------||9-5p0---7-5p0------------------|
g|-------------------------------||-------------------------------|
d|-------------------------------||-------------------------------|
a|-------------------------------||-------------------------------|  
E|-------------------------------||-------------------------------|

  T       T       T       T        T       T       
e|----------------7 5p0---9-5p0--||-------------------------------|
b|9 5p0---7-5p0------------------||9-5p0---7-5p0------------------|
g|-------------------------------||-------------------------------|
d|-------------------------------||-------------------------------|
a|-------------------------------||-------------------------------|  
E|-------------------------------||-------------------------------|


   T       T        T       T        T       T         T        T
e|-7-5p0---9-5p0---10-5p0---9-5p0---10-5p0---12-5p0---10-5p0----12-5p0--|
b|----------------------------------------------------------------------|
g|----------------------------------------------------------------------|
d|----------------------------------------------------------------------|
a|----------------------------------------------------------------------|
E|----------------------------------------------------------------------|


  T       T        T       T        T       T         T        T       T
e|-14-5p0--12-5p0---14-5p0--16-5p0---14-5p0--16-5p0---17-5p0---16-5p0---17-5p0-|
b|-----------------------------------------------------------------------------|
g|-----------------------------------------------------------------------------|
d|-----------------------------------------------------------------------------|
a|-----------------------------------------------------------------------------|
E|-----------------------------------------------------------------------------|

e|------------------|
b|-///--19B---------|
g|------------------|
d|------------------|
a|------------------|
E|------------------|

Pre Chorus
e|------------------|
b|------------------|
g|-12------12-------|
d|------------------|
a|------------------|
E|------------------|


Chorus

e|----------------------|---5-7b-----------13b-10-12-|--------------------|
b|-8-8-8----------------|-7------5-------------------|-8-8-8--------------|
g|-------5---5---5-7----|----------7-----------------|-------5---5---5-7--|
d|---------7---7---5----|------------5/7-------------|---------7---7---5--|
a|----------------------|----------------------------|--------------------|
E|----------------------|----------------------------|--------------------|

e|---5-7b-5-----------13b-10-12-|---------------------|-------------------|
b|-7--------7-5-----------------|-8-8-8---------------|-5-7-8-7-5-3/5-7---|
g|--------------7---------------|-------5---5---5-7---|-------------------|
d|----------------3/5-----------|---------7---7---5---|-------------------|
a|------------------------------|---------------------|-------------------|
E|------------------------------|---------------------|-------------------|

    T      T        T         T         T        T        T
e|------------------------------------------------------------------|
b|-10-7h8--10-7h8---12-9h10--12-9h10---13-10h12-13-10h12--15-10h13--|
g|------------------------------------------------------------------|
d|------------------------------------------------------------------|
a|------------------------------------------------------------------|
E|------------------------------------------------------------------|

    T         T         T      T        T        T       T
e|------------10-6h8--10-6h8--12-8h10--12-8h10--13-10h12-13-10h12---|
b|--15-10h13--------------------------------------------------------|
g|------------------------------------------------------------------|
d|------------------------------------------------------------------|
a|------------------------------------------------------------------|
E|------------------------------------------------------------------|


Outro

e|------------------------------------------------------------------------------|
b|------------------------------------------------------------------------------|
g|----------------------------8h12-8h12-----------------------------------------|
d|-------------------7h11-7h11----------7h11-7h11-------------------------------|
a|---------6h10-6h10------------------------------6h10-6h10---------------------|
E|-5h9-5h9---------------------------------------------------0-4h7-0-4h7-0-4h7--|
    .   .   .    .    .    .    .    .   .    .    .    .  

e|------------------------------------------------------------------------------|
b|------------------------------------------------------------------------------|
g|----------------------------8h12-8h12-----------------------------------------|
d|-------------------7h11-7h11----------7h11-7h11-------------------------------|
a|---------6h10-6h10------------------------------6h10-6h10---------------------|
E|-5h9-5h9---------------------------------------------------0-4h7-0-4h7-0-4h7--|
    .   .   .    .    .    .    .    .   .    .    .    .  


e|--------------------------------------------------12h15-12h15-----------------------|
b|--------------------------------------10h13-10h13------------10h13-10h13------------|
g|----------------------------8h12-8h12------------------------------------8h12-8h12--|
d|-------------------7h11-7h11--------------------------------------------------------|
a|---------6h10 6h10------------------------------------------------------------------|
E|-5h9-5h9----------------------------------------------------------------------------|


e|-------------------------------------------------------------------------------------------|
b|-------------------------------------------------------------------------------------------|
g|-----------------------------8h12-8h12-------------------------13b 13b 10------13b-13b-10--|
d|-------------------7h11-7h11-----------7h11-7h11-----------0-0-------------0-0-------------|
a|---------6h10-6h10-------------------------------6h10-6h10---------------------------------|
E|-5h9-5h9-----------------------------------------------------------------------------------|
    .   .   .    .    .    .    .    .    .    .     .   .   . .             






Related for Happy To Disappoint You tab