Song name
# A B C D E F G H I J K L M N O P Q R S T U V W X Y Z

Inme - Single Of The Weak tab

Help us improve GuitareTab! Take a short survey!
Song: Single Of The Weak
Band: InME
Album: Herald Moth


Intro

e|-----------------------------------------------------|
g|-----------------------------------------------------|
b|-----------------------------------------------------|
d|------------------------5h7p---3h5p------------5*----|
a|---4-5-4---5h7p-4---4--------7------5--7-5-4-5---5*--|
D|-7-------5--------5---5------------------------------|

e|-----------------------------------------------------|
g|-----------------------------------------------------|
b|------------------------5h7p-------------------------|
d|-----------------------------7--5h7p-----------------|
a|---4-5-4---5h7p-4---4----------------7--5-4-5-7------|
D|-5-------5--------5---5------------------------------|


Verse
e|-----------------------------------------------------|
g|-----------------------------------------------------|
b|-----------------------------------------------------|
d|-----------------------------------------------------|
a|-----------------------------------------------------|
D|-----------------------------------------------------|


Chorus
e|-----------------------------------------------------|
g|-----------------------------------------------------|
b|-----------------------------------------------------|
d|-99--55-------------------99--55---------------------|
a|-99--55--000-000-000-000--99--55--000-000-000-000----|
D|-99--55--000-000-000-000--99--55--000-000-000-000----|

e|---------|
g|---------|
b|---------|
d|-99-55---|
a|-99-55---|
D|-99-55---|


Pre Verse
e|------------------------------------------------------------------------|
g|------------------------------------------------------------------------|
b|------------------------------------------------------------------------|
d|------------------------------------------------------------------------|
a|---5h7p---5h7p---5h7p---5h7p---5h7p---3h5p---3h5p---3h5p---3h5p---3h5p--|
D|-7------5------7------5------7------5------3------5------3------5-------|

e|------------------------------------------------------------------------|
g|------------------------------------------------------------------------|
b|------------------------------------------------------------------------|
d|------------------------------------------------------------------------|
a|---5h7p---5h7p---5h7p---5h7p---5h7p---3h5p---3h5p---3h5p---3h5p---3h5p--|
D|-7------5------7------5------7------5------3------5------3------5-------|


Verse
e|-----------------------|-------------------------|
g|-/9-/7-/5-/4-/4-/5-/7--|--/9-/7-/5-/4-/2-/4-/5---|
b|-----------------------|-------------------------|
d|-----------------------|-------------------------|
a|-----------------------|-------------------------|
D|-----------------------|-------------------------|

e|------------------------------------------------|
g|-/11-/9-/7-/5-/7-/9-/11-/9-/7-/5-/7-/9----------|
b|------------------------------------------------|
d|------------------------------------------------|
a|------------------------------------------------|
D|------------------------------------------------|

e|------------------------------------------------|
g|-/11-/9-/7-/5-/7-/9-/7-/5-/3--------------------|
b|------------------------------------------------|
d|------------------------------------------------|
a|------------------------------------------------|
D|------------------------------------------------|


Chorus
e|-----------------------------------------------------|
g|-----------------------------------------------------|
b|-----------------------------------------------------|
d|-99--55-------------------99--55---------------------|
a|-99--55--000-000-000-000--99--55--000-000-000-000----|
D|-99--55--000-000-000-000--99--55--000-000-000-000----|

e|---------|
g|---------|
b|---------|
d|-99-55---|
a|-99-55---|
D|-99-55---|


Breakdown
e|--------------------------------------------------|
g|--------------------------------------------------|
b|--------------------------------------------------|
d|-555-555-555-555-555-000-000-000-000-000----------|
a|-555-555-555-555-555-000-000-000-000-000----------|
D|-555-555-555-555-555-000-000-000-000-000----------|

e|--------------------------------------------------|
g|--------------------------------------------------|
b|--------------------------------------------------|
d|-555-555-555-555-555-000-000-000-000-000----------|
a|-555-555-555-555-555-000-000-000-000-000----------|
D|-555-555-555-555-555-000-000-000-000-000----------|


Solo
e|------------------------------------------------|
g|-/9-/7-/5-/4-/4-/5-/7--/9-/7-/5-/4-/2-/4-/5-----|
b|------------------------------------------------|
d|------------------------------------------------|
a|------------------------------------------------|
D|------------------------------------------------|

e|----10-12-10-12b--------10-12-10-12b------------|
g|-12--------------10*-12--------------12-10*-----|
b|------------------------------------------------|
d|------------------------------------------------|
a|------------------------------------------------|
D|------------------------------------------------|

e|----10-12-10-12b------------10-12-10-12b--------|
g|-12--------------12-10---12--------------12-10--|
b|------------------------------------------------|
d|------------------------------------------------|
a|------------------------------------------------|
D|------------------------------------------------|

                            T        T
e|------------------------------------------------|
g|-18b-17b-15b-14b-15b-17b-20-14h17p-20-14h17p----|
b|------------------------------------------------|
d|------------------------------------------------|
a|------------------------------------------------|
D|------------------------------------------------|

   T         T         T         T         
e|-----------------------------------------17-20bbb-|
g|-20-14h17p-20-14h17p-20-14h17p-20-14h17p----------|
b|--------------------------------------------------|
d|--------------------------------------------------|
a|--------------------------------------------------|
D|--------------------------------------------------|


Chorus
e|---------------|
g|---------------|
b|---------------|
d|-99-55-00-00---|
a|-99-55-00-00---|
D|-99-55-00-00---|

e|-----------------------------------------------------|
g|-----------------------------------------------------|
b|-----------------------------------------------------|
d|-99--55-------------------99--55---------------------|
a|-99--55--000-000-000-000--99--55--000-000-000-000----|
D|-99--55--000-000-000-000--99--55--000-000-000-000----|

e|-----------------------------------------------------|
g|-----------------------------------------------------|
b|-----------------------------------------------------|
d|-99--55-------------------99--55---------------------|
a|-99--55--000-000-000-000--99--55---------------------|
D|-99--55--000-000-000-000--99--55---------------------|


Outro
e|-----------------------------------------------------|
g|-----------------------------------------------------|
b|-----------------------------------------------------|
d|------------------------5h7p---3h5p------------5*----|
a|---4-5-4---5h7p-4---4--------7------5--7-5-4-5---5*--|
D|-7-------5--------5---5------------------------------|

e|-----------------------------------------------------|
g|-----------------------------------------------------|
b|------------------------5h7p-------------------------|
d|-----------------------------7--5h7p----00-----------|
a|---4-5-4---5h7p-4---4----------------7--00-----------|
D|-5-------5--------5---5-----------------00-----------|
Related for Single Of The Weak tab