Song name
# A B C D E F G H I J K L M N O P Q R S T U V W X Y Z

Inme - Belief Revival tab

Song: Belief Revival
Band: InME
Album: Herald Moth


Intro

Dave:
      NH    NH    NH    NH   NH     NH    NH    NH
e|--------------------------------------------------------------|
b|--------------------------------------------------------------|
g|--------------------------------------------------------------|
d|------------------------------------------------------5/7b----|
a|-00----00----00----00----00----00----00----00-----5-7------8--|
D|-00-5*-00-5*-00-5*-00-5*-00-7*-00-7*-00-7*-00-7*--------------|
  
      NH    NH    NH    NH   NH     NH    NH    NH
e|--------------------------------------------------------------|
b|--------------------------------------------------------------|
g|--------------------------------------------------------------|
d|--------------------------------------------------------------|
a|-00----00----00----00----00----00----00----00-----------------|
D|-00-5*-00-5*-00-5*-00-5*-00-7*-00-7*-00-7*-00-7*--------------|


Ben:
e|-15h17p 17b--------------------10-9--------------------------|
b|------------18b-17-15----------------7--12-10-----------------|
g|----------------------18p17-14-----------------12-10---------|
d|-------------------------------------------------------------|
a|-------------------------------------------------------------|
D|-------------------------------------------------------------|


Verse
Dave:
                                                                      NH
e|-------------------------------------------------------------------------|
b|-------------------------------------------------------------------------|
g|-------------------------------------------------------------------------|
d|-------------------------8--------6--------------------------------------|
a|-0-0-0-0-0-0-0-0---8-10----10-6-8---8-5--0-0-0-0-0-0-0-0-00-00-00-00-----|
D|-0-0-0-0-0-0-0-0------------------------0-0-0-0-0-0-0-0-00-00-00-00-5*---|
     . . .   . . .                          . . .   . . . .  .  .  .

Ben:
e|-------------------------------------------------------------------------|
b|-12-10h12p----8-10-12----------------------------12-10h12----8-10-12-----|
g|-----------12---------------------------------------------12-------------|
d|-----------------------------10---------8--------------------------------|
a|-----------------------10-12----12-8-10---10-7---------------------------|
D|-------------------------------------------------------------------------|

e|---------------|
b|-10-8/7-7/3----|
g|---------------|
d|---------------|
a|---------------|
D|---------------|


Chorus
Dave:
e|---------------------------------------------------|
b|---------------------------------------------------|
g|--7--9--5------------------------------------------|
d|--7--9--5--5--7------------------------------------|
a|--5--7--3--5--7----ALL STRUMMED--------------------|
D|-----------5--7------------------------------------|

Ben:
e|-------------------------|-------------------------|---------------------|
b|-8-8/10-10/12---------10-|-8-8/10-10/12---------10-|--7-8-10-8-----------|
g|--------------12-11-9----|--------------12-11-9----|-----------9-9-7-7---|
d|-------------------------|-------------------------|---------------------|
a|-------------------------|-------------------------|---------------------|
D|-------------------------|-------------------------|---------------------|

e|------10--------|---------------------|------10--------|
b|--7-8----8-7-5--|--7-8-10-8-----------|--7-8----8-7-5--|
g|----------------|-----------9-9-7-7---|----------------|
d|----------------|---------------------|----------------|
a|----------------|---------------------|----------------|
D|----------------|---------------------|----------------|


Prevere
Dave:
e|-----------------------------------------------------|
b|-----------------------------------------------------|
g|-----------------------------------------------------|
d|-----------------------------------------------------|
a|-0-0-0-0-000-0-0-0-0-000-0-0-0-0-000-0-0-0-0-000-----|
D|-0-0-0-0-000-0-0-0-0-000-0-0-0-0-000-0-0-0-0-000-----|
   . . . . ... . . . . ... . . . . ... . . . . ...

Ben:
e|-10-9----7-5-------------------|
b|------7------7-----------------|
g|---------------8---------------|
d|---------------------11/-------|
a|-------------------------------|
D|-------------------------------|



Verse
Dave:
                                                                      NH
e|-------------------------------------------------------------------------|
b|-------------------------------------------------------------------------|
g|-------------------------------------------------------------------------|
d|-------------------------8--------6--------------------------------------|
a|-0-0-0-0-0-0-0-0---8-10---10-6-8---8-5--0-0-0-0-0-0-0-0-00-00-00-00------|
D|-0-0-0-0-0-0-0-0------------------------0-0-0-0-0-0-0-0-00-00-00-00-5*---|
     . . .   . . .                          . . .   . . . .  .  .  . 

e|-----------------------|---------------------------|----------------------|
b|-12-10h12p----8-10-12--|---------------------------|-12-10h12----8-10-12--|
g|-----------12----------|---------------------------|-----------12---------|
d|-----------------------|--------10---------8-------|----------------------|
a|-----------------------|--10-12----12-8-10---10-7--|----------------------|
D|-----------------------|---------------------------|----------------------|

e|---------------|
b|-10-8/7-5/3----|
g|---------------|
d|---------------|
a|---------------|
D|---------------|


Chorus
Dave:
e|---------------------------------------------------|
b|---------------------------------------------------|
g|--7--9--5------------------------------------------|
d|--7--9--5--5--7------------------------------------|
a|--5--7--3--5--7----ALL STRUMMED--------------------|
D|-----------5--7------------------------------------|

Ben:
e|-------------------------|-------------------------|---------------------|
b|-8-8/10-10/12---------10-|-8-8/10-10/12---------10-|--7-8-10-8-----------|
g|--------------12-11-9----|--------------12-11-9----|-----------9-9-7-7---|
d|-------------------------|-------------------------|---------------------|
a|-------------------------|-------------------------|---------------------|
D|-------------------------|-------------------------|---------------------|

e|------10--------|---------------------|------10--------|
b|--7-8----8-7-5--|--7-8-10-8-----------|--7-8----8-7-5--|
g|----------------|-----------9-9-7-7---|----------------|
d|----------------|---------------------|----------------|
a|----------------|---------------------|----------------|
D|----------------|---------------------|----------------|


Breakdown
e|-----------------------------------------------------|
b|-----------------------------------------------------|
g|-----------------------------------------------------|
d|-----------------------------------------------------|
a|-0-0-0-0-000-0-0-0-0-000-0-0-0-0-000-0-0-0-0-000-----|
D|-0-0-0-0-000-0-0-0-0-000-0-0-0-0-000-0-0-0-0-000-----|
   . . . . ... . . . . ...         ...         ...


Solo

    T        T        T        T        T        T        T        T
e|--------------------------------------------------------------------------|
b|--12-3h7p0-12-3h7p0-12-3h7p0-12-3h7p0-12-3h7p0-12-3h7p0-14-3h7p0-14-3h7p0-|
g|--------------------------------------------------------------------------|
d|--------------------------------------------------------------------------|
a|--------------------------------------------------------------------------|
D|--------------------------------------------------------------------------|
   
    T        T        T        T        T        T        T        T
e|--------------------------------------------------------------------------|
b|--14-3h7p0-14-3h7p0-14-3h7p0-14-3h7p0-16-5h9p0-16-5h7p0-16-5h9p0-16-5h7p0-|
g|--------------------------------------------------------------------------|
d|--------------------------------------------------------------------------|
a|--------------------------------------------------------------------------|
D|--------------------------------------------------------------------------|

   T        T        T         T         T         T         T        
e|--------------------------------------------------------------------------|
b|-16-5h9p0-16-5h9p0-18-7h11p0-18-7h11p0-18-7h11p0-18-7h11p0-18-7h11p0------|
g|--------------------------------------------------------------------------|
d|--------------------------------------------------------------------------|
a|--------------------------------------------------------------------------|
D|--------------------------------------------------------------------------|

   T          T          T          T          T          T
e|------------18-10h14p0-18-10h14p0-18-10h14p0-18-10h14p0-18-10h14p0--------|
b|-18-7h11p0----------------------------------------------------------------|
g|--------------------------------------------------------------------------|
d|--------------------------------------------------------------------------|
a|--------------------------------------------------------------------------|
D|--------------------------------------------------------------------------|

   T          T         T         T         T         T
e|-18-10h14p0-16-8h12p0-18-8h12p0-16-8h12p0-18-8h12p0-16-8h12p0-------------|
b|--------------------------------------------------------------------------|
g|--------------------------------------------------------------------------|
d|--------------------------------------------------------------------------|
a|--------------------------------------------------------------------------|
D|--------------------------------------------------------------------------|

   T        T       T        T       T        T       T        
e|-18-8h12p0-15-7h11p0-15-7h11p0-15-7h11p0-15-7h11p0-15-7h11p0--------------|
b|--------------------------------------------------------------------------|
g|--------------------------------------------------------------------------|
d|--------------------------------------------------------------------------|
a|--------------------------------------------------------------------------|
D|--------------------------------------------------------------------------|

   T         T        T        T       T        T        T        
e|-15-7h11p0-15-7h10p-15-7h10-----------------------------------------------|
b|----------------------------15-7h10p-15-7h10------------------------------|
g|----------------------------------------------15-7h10p-15-7h10------------|
d|--------------------------------------------------------------------------|
a|--------------------------------------------------------------------------|
D|--------------------------------------------------------------------------|

   T        T       T        T
e|---------------------------------------|
b|---------------------------------------|
g|------------------15-7h10p-15-7h10-----|
d|-15-7h10p-15-7h10----------------------|
a|---------------------------------------|
D|---------------------------------------|

    T        T        T        T        T        T        T        T
e|--------------------------------------------------------------------------|
b|--12-3h7p0-12-3h7p0-12-3h7p0-12-3h7p0-12-3h7p0-12-3h7p0-14-3h7p0-14-3h7p0-|
g|--------------------------------------------------------------------------|
d|--------------------------------------------------------------------------|
a|--------------------------------------------------------------------------|
D|--------------------------------------------------------------------------|
   
    T        T        T        T        T        T        T        T
e|--------------------------------------------------------------------------|
b|--14-3h7p0-14-3h7p0-14-3h7p0-14-3h7p0-16-5h9p0-16-5h7p0-16-5h9p0-16-5h7p0-|
g|--------------------------------------------------------------------------|
d|--------------------------------------------------------------------------|
a|--------------------------------------------------------------------------|
D|--------------------------------------------------------------------------|

   T        T        T         T         T         T         T        
e|--------------------------------------------------------------------------|
b|-16-5h9p0-16-5h9p0-18-7h11p0-18-7h11p0-18-7h11p0-18-7h11p0-18-7h11p0------|
g|--------------------------------------------------------------------------|
d|--------------------------------------------------------------------------|
a|--------------------------------------------------------------------------|
D|--------------------------------------------------------------------------|

   T          T          T          T          T          T
e|------------18-10h14p0-18-10h14p0-18-10h14p0-18-10h14p0-18-10h14p0--------|
b|-18-7h11p0----------------------------------------------------------------|
g|--------------------------------------------------------------------------|
d|--------------------------------------------------------------------------|
a|--------------------------------------------------------------------------|
D|--------------------------------------------------------------------------|

   T          T         T         T         T         T
e|-18-10h14p0-16-8h12p0-18-8h12p0-16-8h12p0-18-8h12p0-16-8h12p0-------------|
b|--------------------------------------------------------------------------|
g|--------------------------------------------------------------------------|
d|--------------------------------------------------------------------------|
a|--------------------------------------------------------------------------|
D|--------------------------------------------------------------------------|

   T        T       T        T       T        T       T        
e|-18-8h12p0-15-7h11p0-15-7h11p0-15-7h11p0-15-7h11p0-15-7h11p0--------------|
b|--------------------------------------------------------------------------|
g|--------------------------------------------------------------------------|
d|--------------------------------------------------------------------------|
a|--------------------------------------------------------------------------|
D|--------------------------------------------------------------------------|

   T         T        T        T       T        T        T        
e|-15-7h11p0-15-7h10p-15-7h10-----------------------------------------------|
b|----------------------------15-7h10p-15-7h10------------------------------|
g|----------------------------------------------15-7h10p-15-7h10------------|
d|--------------------------------------------------------------------------|
a|--------------------------------------------------------------------------|
D|--------------------------------------------------------------------------|


Pre-Chorus
Dave:
e|------------------------------------------------------------------------|
b|------------------------------------------------------------------------|
g|------------------------------------------------------------------------|
d|------------------------10---------8------------------------------------|
a|-0-0-0-0-0-0-0-0--10-12----12-8-10---10-7--0-0-0-0-0-0-0-0--7-5-4-2-0---|
D|-0-0-0-0-0-0-0-0---------------------------0-0-0-0-0-0-0-0--7-5-4-2-0---|
     . . .   . . .                             . . .   . . .
 
Ben:
e|-15b-11-12bb------------------------------------------------------------|
b|--------------------------------------12b-10-8-------10-8/7-5/3---------|
g|-------------------10---------8----------------10-9---------------------|
d|-------------10-12----12-8-10---10-7------------------------------------|
a|------------------------------------------------------------------------|
D|------------------------------------------------------------------------|



Chorus
Dave:
e|---------------------------------------------------|
b|---------------------------------------------------|
g|--7--9--5------------------------------------------|
d|--7--9--5--5--7------------------------------------|
a|--5--7--3--5--7---------ALL STRUMMED---------------|
D|-----------5--7------------------------------------|

Ben:
e|-------------------------|-------------------------|---------------------|
b|-8-8/10-10/12---------10-|-8-8/10-10/12---------10-|--7-8-10-8-----------|
g|--------------12-11-9----|--------------12-11-9----|-----------9-9-7-7---|
d|-------------------------|-------------------------|---------------------|
a|-------------------------|-------------------------|---------------------|
D|-------------------------|-------------------------|---------------------|

e|------10------|-------------------|------10--------|
b|--7-8----8----|--7-8-10-----------|--7-8----8------|
g|-----------9--|---------9-9-7-7---|-----------9----|
d|--------------|-------------------|----------------|
a|--------------|-------------------|----------------|
D|--------------|-------------------|----------------|


Outro
e|-15h17p 17b--------------------10-9----7-5-------------------|
b|------------18b-17-15----------------7------7----------------|
g|---------------------18p17-14-----------------8/10bb/--------|
d|-------------------------------------------------------------|
a|-------------------------------------------------------------|
D|-------------------------------------------------------------|
Tap to rate this tab
# A B C D E F G H I J K L M N O P Q R S T U V W X Y Z