Song name
# A B C D E F G H I J K L M N O P Q R S T U V W X Y Z

Inme - Underdose tab

UNDERDOSE - INME

INTRO
E|--------------------------------------------------|
B|--------------------------------------------------|
G|--------------------------------------------------|
D|--------------------------------------------------|
A|--------------------------------------------------|
D|-14p0-0-0-14p0-0-0-14p0-14p0-12p0-0-0-12p0-0-0-12-|

E|--------------------------------------------------|
B|--------------------------------------------------|
G|--------------------------------------------------|
D|--------------------------------------------------|
A|--------------------------------------------------|
D|-14p0-0-0-14p0-0-0-14p0-14p0-12p0-0-0-12p0-0-0-12-|


E|-----------------------------------------------|
B|-----------------------------------------------|
G|-----------------------------------------------|
D|-----------------------------------------------|
A|-----------------------------777-555-444-1-011-|
D|-11p0-0-0-11p0-0-0-11p0-11p0-777-555-444-1-011-|

E|--------------------------------------------------|
B|--------------------------------------------------|
G|--------------------------------------------------|
D|--------------------------------------------------|
A|--------------------------------------------------|
D|-14p0-0-0-14p0-0-0-14p0-14p0-12p0-0-0-12p0-0-0-12-|


E|-----------------------------------------------|
B|-----------------------------------------------|
G|-----------------------------------------------|
D|-----------------------------------------------|
A|-----------------------------777-555-444-1-011-|
D|-11p0-0-0-11p0-0-0-11p0-11p0-777-555-444-1-011-|


VERSE 1
E|------------------------------------------|
B|------------------------------------------|
G|------------------------------------------|
D|------------------------------------------|
A|-14p0--14p0--12p0--14p0-0-0-14p0-0-0-14p0-|
D|-14p0--14p0--12p0--14p0-0-0-14p0-0-0-14p0-|
PM                      . . .    . . .    .

E|------------------------------------------|
B|------------------------------------------|
G|------------------------------------------|
D|------------------------------------------|
A|-14p0--14p0--12p0--14p0-0-0-14p0-0-0-1415-|
D|-14p0--14p0--12p0--14p0-0-0-14p0-0-0-1415-|
PM                      . . .    . . .


CHORUS
E|-----------------------------------------------|
B|-----------------------------------------------|
G|-----------------------------------------------|
D|-----------------------------------------------|
A|-8-8-8-88-8-8-8-88-10-10-10-1010-10-10-10-1010-|
D|-8-8-8-88-8-8-8-88-10-10-10-1010-10-10-10-1010-|

E|-----------------------------|
B|-----------------------------|
G|-----------------------------|
D|-----------------------------|
A|-0-05-0-1-0101-0-09-0-1-0101-|
D|-0-0--0-1-0101-0-0--0-1-0101-|

E|-----------------------------------------------|
B|-----------------------------------------------|
G|-----------------------------------------------|
D|-----------------------------------------------|
A|-8-8-8-88-8-8-8-88-10-10-10-1010-10-10-10-1010-|
D|-8-8-8-88-8-8-8-88-10-10-10-1010-10-10-10-1010-|

E|-----------------------------|
B|-----------------------------|
G|-----------------------------|
D|-----------------------------|
A|-0-05-0-1-0101-0-09-0-1-0101-|
D|-0-0--0-1-0101-0-0--0-1-0101-|


VERSE 2
E|------------------------------------------|
B|------------------------------------------|
G|------------------------------------------|
D|------------------------------------------|
A|-14p0--14p0--12p0--14p0-0-0-14p0-0-0-14p0-|
D|-14p0--14p0--12p0--14p0-0-0-14p0-0-0-14p0-|
PM                      . . .    . . .    .

E|------------------------------------------|
B|------------------------------------------|
G|------------------------------------------|
D|------------------------------------------|
A|-14p0--14p0--12p0--14p0-0-0-14p0-0-0-1415-|
D|-14p0--14p0--12p0--14p0-0-0-14p0-0-0-1415-|
PM                      . . .    . . .


CHORUS
E|-----------------------------------------------|
B|-----------------------------------------------|
G|-----------------------------------------------|
D|-----------------------------------------------|
A|-8-8-8-88-8-8-8-88-10-10-10-1010-10-10-10-1010-|
D|-8-8-8-88-8-8-8-88-10-10-10-1010-10-10-10-1010-|

E|-----------------------------|
B|-----------------------------|
G|-----------------------------|
D|-----------------------------|
A|-0-05-0-1-0101-0-09-0-1-0101-|
D|-0-0--0-1-0101-0-0--0-1-0101-|

E|-----------------------------------------------|
B|-----------------------------------------------|
G|-----------------------------------------------|
D|-----------------------------------------------|
A|-8-8-8-88-8-8-8-88-10-10-10-1010-10-10-10-1010-|
D|-8-8-8-88-8-8-8-88-10-10-10-1010-10-10-10-1010-|

E|-----------------------------|
B|-----------------------------|
G|-----------------------------|
D|-----------------------------|
A|-0-05-0-1-0101-0-09-0-1-0101-|
D|-0-0--0-1-0101-0-0--0-1-0101-|


INTERLUDE
E|--------------------------------------------------|
B|--------------------------------------------------|
G|--------------------------------------------------|
D|--------------------------------------------------|
A|--------------------------------------------------|
D|-14p0-0-0-14p0-0-0-14p0-14p0-777-555-444-1-011-//-|

E|--------------------------------------------------|
B|--------------------------------------------------|
G|--------------------------------------------------|
D|--------------------------------------------------|
A|--------------------------------------------------|
D|-14p0-0-0-14p0-0-0-14p0-14p0-12p0-0-0-12p0-0-0-12-|

E|-----------------------------------------------|
B|-----------------------------------------------|
G|-----------------------------------------------|
D|-----------------------------------------------|
A|-----------------------------777-555-444-1-011-|
D|-11p0-0-0-11p0-0-0-11p0-11p0-777-555-444-1-011-|

E|--------------------------------------------------|
B|--------------------------------------------------|
G|--------------------------------------------------|
D|--------------------------------------------------|
A|--------------------------------------------------|
D|-14p0-0-0-14p0-0-0-14p0-14p0-12p0-0-0-12p0-0-0-12-|

E|-----------------------------------------------|
B|-----------------------------------------------|
G|-----------------------------------------------|
D|-----------------------------------------------|
A|-----------------------------777-555-444-1/710-|
D|-11p0-0-0-11p0-0-0-11p0-11p0-777-555-444-1/710-|


BRIDGE
E|----------------------------------------------------|
B|-------------------------------------7--------------|
G|-------------------------------7-----------7--------|
D|----------------------------------------------------|
A|----12-----12-----12----4-7-5-5-5-5-5-555-5-5-5/710-|
D|-9-9--9-9-9--999-9--9-9/4-7-5-5-5-5-5-555-5-5-5/710-|
PM . .  . . .  ... .  . .

E|-------------------------------------------------------|
B|----------------------------------------7--------------|
G|----------------------------------7-----------7--------|
D|-------------------------------------------------------|
A|-9-912-9-9-912-999-912-9-9/4-7-5-5-5-5-5-555-5-5-5/710-|
D|-9-99--9-9-99--999-99--9-9/4-7-5-5-5-5-5-555-5-5-5/710-|

E|-------------------------------------------------------|
B|----------------------------------------7--------------|
G|----------------------------------7-----------7--------|
D|-------------------------------------------------------|
A|-9-912-9-9-912-999-912-9-9/4-7-5-5-5-5-5-555-5-5-5/710-|
D|-9-99--9-9-99--999-99--9-9/4-7-5-5-5-5-5-555-5-5-5/710-|

E|----------------------------------------------------------------|
B|----------------------------------------7-----------------------|
G|----------------------------------7-----------------------------|
D|----------------------------------------------------------------|
A|-9-912-9-9-912-999-912-9-9/4-7-5-5-5-5-5------------------------|
D|-9-99--9-9-99--999-99--9-9/4-7-5-5-5-5-5-14p0-0-0-14p0-0-0-1415-|


OUTRO
E|-----------------------------------------------|
B|-----------------------------------------------|
G|-----------------------------------------------|
D|-----------------------------------------------|
A|-8-8-8-88-8-8-8-88-10-10-10-1010-10-10-10-1010-|
D|-8-8-8-88-8-8-8-88-10-10-10-1010-10-10-10-1010-|

E|-----------------------------|
B|-----------------------------|
G|-----------------------------|
D|-----------------------------|
A|-0-05-0-1-0101-0-09-0-1-0101-|
D|-0-0--0-1-0101-0-0--0-1-0101-|

E|-----------------------------------------------|
B|-----------------------------------------------|
G|-----------------------------------------------|
D|-----------------------------------------------|
A|-8-8-8-88-8-8-8-88-10-10-10-1010-10-10-10-1010-|
D|-8-8-8-88-8-8-8-88-10-10-10-1010-10-10-10-1010-|

E|-----------------------------|
B|-----------------------------|
G|-----------------------------|
D|-----------------------------|
A|-0-05-0-1-0101-0-09-0-1-0101-|
D|-0-0--0-1-0101-0-0--0-1-0101-|

E|-----------------------------------------------|
B|-----------------------------------------------|
G|-----------------------------------------------|
D|-----------------------------------------------|
A|-8-8-8-88-8-8-8-88-10-10-10-1010-10-10-10-1010-|
D|-8-8-8-88-8-8-8-88-10-10-10-1010-10-10-10-1010-|

E|-----------------------------|
B|-----------------------------|
G|-----------------------------|
D|-----------------------------|
A|-0-05-0-1-0101-0-09-0-1-0101-|
D|-0-0--0-1-0101-0-0--0-1-0101-|

E|-----------------------------------------------|
B|-----------------------------------------------|
G|-----------------------------------------------|
D|-----------------------------------------------|
A|-8-8-8-88-8-8-8-88-10-10-10-1010-10-10-10-1010-|
D|-8-8-8-88-8-8-8-88-10-10-10-1010-10-10-10-1010-|

E|------------------------------------------|
B|------------------------------------------|
G|------------------------------------------|
D|------------------------------------------|
A|-0-000-000-000-001-111-111-11-2h3p2p0-1p0-|
D|-0-000-000-000-001-111-111-11-2h3p2p0-1p0-|
PM   ..  ..  ..  ..  ..  ..  ..


Tap to rate this tab
# A B C D E F G H I J K L M N O P Q R S T U V W X Y Z