Song name
# A B C D E F G H I J K L M N O P Q R S T U V W X Y Z

Inme - Web tab

Help us improve GuitareTab! Take a short survey!
Inme - Web

an amazing b-side for the album Overgrown eden.

I tried learning this song a few different ways, but this way is simple, easy and sounds accurate.

E --------------------------------------------|
B --------------------------------------------|
G --------------------------------------------|
D --------------------------------------------|
A ------------0-3-3-0-------------------------|
E --0-4-4-4-4---------3-3-2-1----0-4-4-4-4----|




E --------------------|
B --------------------|
G --------------------|
D --------------------|
A ------------0-3-3-0-|
E --0-4-4-4-4---------|

PAUSE - then with drums and bass 
(untill first verse)

E -------------------------------|
B -------------------------------|
G -------------------------------|
D -------------------------------|
A ------------0-3-3-0------------|
E --0-4-4-4-4---------3-3-2-1----|

Verse-
(this starts on 'the world has an illness' for electric guitar)

E -------------------------------|
B -------------------------------|
G -------------------------------|
D -------------------------------|
A -------------------------------|
E 9/1-0-0--0-1-0--0-1-0-2-1-0-1--|

i don't know the but the intro if fun to play
Azz_e__@hotmail.co.uk 

 frim the Inme_guy!
Related for Web tab