Guitaretab - guitar tabs
Song name
# A B C D E F G H I J K L M N O P Q R S T U V W X Y Z
Home / I / Inme / Energy tab

Inme - Energy tab

Intro
E|---------------------------------------------|
B|---------------------------10-10-10-8-8-8-11-|
G|---------------------------------------------|
D|-8888-88--8888-88--0000-00-------------------|
A|-8888-88--8888-88--0000-00-------------------|
D|-8888-88--8888-88--0000-00-------------------|
   ....     ....     ....

E|----------------------------------------------|
B|---------------------------10-10-10-8-8-8-----|
G|------------------------------------------10\-|
D|-8888-88--8888-88--0000-00--------------------|
A|-8888-88--8888-88--0000-00--------------------|
D|-8888-88--8888-88--0000-00--------------------|

Verse 
E|--------------------------------------------|
B|--------------------------------------------|
G|--------------------------------------------|
D|-----10-------10---------14----------14-----| 
A|---8----8---8----8----12----12----12----12--|
D|-8--------8--------12----------12-----------|

[ Tab from: http://www.guitaretab.com/i/inme/32817.html ]
Pre-Chorus (You can taste...)
E|---------------------------------------------------------------|
B|---------------------------------------------------------------|
G|---------------------------------------------------------------|
D|-----0-------0-------10-------10-------7-------7----8-8-8-8888-|
A|---0---0---0---0---8----8---8----8---7---7---7---7--8-8-8-8888-|
D|-0-------0-------8--------8--------7-------7--------8-8-8-8888-|
                                                      . . . ....

Chorus (Voices shadow me...)
E|--------------------------------------|
B|--------------------------------------|
G|--------------------------------------|
D|-77777777--55555555--3333333333333333-|
A|-77777777--55555555--3333333333333333-|
D|-77777777--55555555--3333333333333333-|


Interlude (Take Me Home...)
E|--------------------------------------|
B|--------------------------------------|
G|-55555555--77777777--8888888888888888-|
D|-55555555--77777777--8888888888888888-|
A|-33333333--55555555--6666666666666666-|
D|--------------------------------------|

End On
E|---|
B|---|
G|---|
D|-7-|
A|-7-|
D|-7-|
Related for Energy tab
×
Energy