Song name
# A B C D E F G H I J K L M N O P Q R S T U V W X Y Z

Inme - Ice Warm tab

----------------------------------------------------------------------------
			     IceWarm - InMe
----------------------------------------------------------------------------
Tabbed by: Nirvanaboy183
Email: scottdaniels183@hotmail.com

Tuning: drop-D

Intro/Verse
E|-----------------10~-----------18-----|
B|-----------3~----10~----8—-6//-18-----|
G|-----------------10~------------------|
D|--------------------------------------|
A|--------------------------------------|
D|---5--5-------------------------------|

E|---------------------------------------------------------15-----| 
B|--7--7-8--8-10--11-13-15----11--11-11-11-13--15-------------15--| 
G|------------------------------------------------14-15-14--------| 
D|----------------------------------------------------------------|
A|----------------------------------------------------------------| 
D|----------------------------------------------------------------|

e|----------------------------------------------------------------| 
B|3~---8-6----7--7-8--8-10------------11-11-11-11-13—15-----------| 
G|------------------------------------------------------14-15-14--| 
D|----------------------------------------------------------------| 
A|----------------------------------------------------------------| 
D|----------------------------------------------------------------|

E|-----------18---------------------------------------------------| 
B|3~---8-6-//18---7--7-8--8-10------11--11-11-11-13--15-----------| 
G|------------------------------------------------------14-15-14--| 
D|----------------------------------------------------------------|
A|----------------------------------------------------------------| 
D|----------------------------------------------------------------|
 
Pre Chorus (starts jst b4 second ‘secret cracks’)
e|----------------------------------------------------------------|
B|-8-----------------8--------1618-1618-1618-1618-----------------|
G|--7~-------8--------7~------------------------------------------|
D|------------8~------------------------------------xx-x--xx-x----|
A|--------------------------------------------------xx-x--xx-x----|
D|--------------------------------------------------xx-x--xx-x----|

Chorus
e|-------------------------------------------|
B|-------------------------------------------|
G|-------------------------------------------|
D|-8-8-88-77-77-77-77-xx7-77--xx5--xx7-------|
A|-8-8-88-------------xx7-77--xx5--xx7-------| x4
D|-8-8-88-------------xx7-77--xx5--xx7-------|

Verse
E|-----------------------------------------------------------15---| 
B|--7--7-8--8-10--11-13-15----11--11-11-11-13--15---------------15| 
G|------------------------------------------------14-15-14--------| 
D|----------------------------------------------------------------|
A|----------------------------------------------------------------| 
D|----------------------------------------------------------------|

e|----------------------------------------------------------------| 
B|3~---8-6----7--7-8--8-10------------11-11-11-11-13—15-----------| 
G|------------------------------------------------------14-15-14--| 
D|----------------------------------------------------------------| 
A|----------------------------------------------------------------| 
D|----------------------------------------------------------------|

E|-----------18---------------------------------------------------| 
B|3~---8-6-//18---7--7-8--8-10------11--11-11-11-13--15-----------| 
G|------------------------------------------------------14-15-14--| 
D|----------------------------------------------------------------|
A|----------------------------------------------------------------| 
D|----------------------------------------------------------------|

Pre Chorus (starts just b4 second ‘secret cracks’)
e|----------------------------------------------------------------|
B|-8-----------------8--------1618-1618-1618-1618-----------------|
G|--7~-------8--------7~------------------------------------------|
D|------------8~------------------------------------xx-x--xx-x----|
A|--------------------------------------------------xx-x--xx-x----|
D|--------------------------------------------------xx-x--xx-x----|

Chorus
e|-------------------------------------------|
B|-------------------------------------------|
G|-------------------------------------------|
D|-8-8-88-77-77-77-77-xx7-77--xx5--xx7-------|
A|-8-8-88-------------xx7-77--xx5--xx7-------| x4
D|-8-8-88-------------xx7-77--xx5--xx7-------|

Interlude
E|-----------------10~-----------18-----|
B|-----------3~----10~----8—-6//-18-----|
G|-----------------10~------------------|
D|--------------------------------------|
A|--------------------------------------|
D|---5--5-------------------------------|

E|----------------------------------------------------------------|
B|--7--7-8--8-10------11--11-11-1111111110101010------------------|
G|----------------------------------------------------------------|
D|----------------------------------------------------------------|
A|----------------------------------------------------------------|
D|----------------------------------------------------------------|
 
e|----------------------------------------------------------------|
B|----------------------------------------------------------------|
G|----------------------------------------------------------------|
D|-5-5-55-5555---1-1-11-1111---5-5-55-5555---1111111111111--------|
A|-5-5-55-5555---1-1-11-1111---5-5-55-5555---1111111111111--------|
D|-5-5-55-5555---1-1-11-1111---5-5-55-5555---1111111111111--------|

Chorus
Gtr1
e|-------------------------------------------|
B|-------------------------------------------|
G|-------------------------------------------|
D|-8-8-88-77-77-77-77-xx7-77--xx5--xx7-------|
A|-8-8-88-------------xx7-77--xx5--xx7-------| x4
D|-8-8-88-------------xx7-77--xx5--xx7-------|

End Chorus
Gtr1
e|-------------------------------------------|
B|-------------------------------------------|
G|-------------------------------------------|
D|-8-8-88-77-77-77-77-xx7-77--xx5--xx7-------|
A|-8-8-88-------------xx7-77--xx5--xx7-------| x4
D|-8-8-88-------------xx7-77--xx5--xx7-------|

End Chorus
Gtr2
E|---------18---18---18---18---17---17---17---17---------|
B|-------------------------------------------------------|
G|------15---15---15---15---14---14---14---14------------|
D|-------------------------------------------------------|
A|-------------------------------------------------------|
D|-------------------------------------------------------|

E|---------13---13---13---13---15---15---17---17---------|
B|-------------------------------------------------------|
G|------10---10---10---10---12---12---14---14------------|
D|-------------------------------------------------------|
A|-------------------------------------------------------| x4
D|-------------------------------------------------------|

End
Gtr 1&2
e|----------------|
B|----------------|
G|----------------|
D|-8-x-7-x-3~~----|
A|-8-x-7-x-3~~----|
D|-8-x-7-x-3~~----|

Gtr3 – (just after Gtr 1&2 end)
e|----------------------------------------------------------|
B|----------------------------------------------------------|
G|-----0---2-----3---2-0-----------0-------------h-p--------|
D|---3---3-----3----------3-2----2-----3----2--2-3-2---2----|
A|-1---------------------------0-----0----0----------0------| x3
D|----------------------------------------------------------|

E|-------------------------|
B|-----------3~~~----------|
G|-------------------------|
D|-------0~~~--------------|
A|-------------------------|
D|---5~~~------------------|
Tap to rate this tab
# A B C D E F G H I J K L M N O P Q R S T U V W X Y Z