Guitaretab - guitar tabs
Song name
# A B C D E F G H I J K L M N O P Q R S T U V W X Y Z
Home / I / Inme / Alaya tab

Inme - Alaya tab

----------------------------------------------------------------------------
			     Alaya - InMe
----------------------------------------------------------------------------
Tabbed by: Nirvanaboy183
Email: scottdaniels183@hotmail.com

InMe  Alaya

Tuning: Drop-D

Intro
e|------------------------------------------------------------------|
B|------------------------------------------------------------------|
G|------------------------------------------------------------------|
D|--5-5---3-3---6-6---2-2---5-5---3-3---6-6---1/--------------------|
A|--5-5---3-3---6-6---2-2---5-5---3-3---6-6---1/--------------------|
D|--5-5---3-3---6-6---2-2---5-5---3-3---6-6---1/--------------------|

Verse
e|------------------------------------------------------------------|
B|------------------------------------------------------------------|
G|------------------------------------------------------------------|
D|--5-5---3-3---6-6---------------5-5---3-3---6-6----6h7------------|
A|--5-5---3-3---6-6---0-2-0-2-0---5-5---3-3---6-6--------6h7--------|
D|--5-5---3-3---6-6---0-2-0-2-0---5-5---3-3---6-6-------------------|

e|------------------------------------------------------------------|
B|------------------------------------------------------------------|
G|------------------------------------------------------------------|
D|--5-5---3-3---6-6---------------5-5---3-3---6-6----6h7------------|
A|--5-5---3-3---6-6---0-2-0-2-0---5-5---3-3---6-6-------=6h7--------|
D|--5-5---3-3---6-6---0-2-0-2-0---5-5---3-3---6-6-------------------|

Chorus
e|-------------------15---------------------------------------------|
B|------------------------------------------------------------------|
G|------------------------------------------------------------------|
D|--5-5---3-3---6-6-------5-5---3-3---6-6----6h7--------------------|
A|--5-5---3-3---6-6-------5-5---3-3---6-6--------6h7----------------|
D|--5-5---3-3---6-6-------5-5---3-3---6-6---------------------------|

e|-------------------15---------------------------------------------|
B|------------------------------------------------------------------|
G|------------------------------------------------------------------|
D|--5-5---3-3---6-6-------5-5---3-3---6-6---1/----------------------|
A|--5-5---3-3---6-6-------5-5---3-3---6-6---1/----------------------|
D|--5-5---3-3---6-6-------5-5---3-3---6-6---1/----------------------|

Verse
e|------------------------------------------------------------------|
B|------------------------------------------------------------------|
G|------------------------------------------------------------------|
D|--5-5---3-3---6-6---------------5-5---3-3---6-6----6h7------------|
A|--5-5---3-3---6-6---0-2-0-2-0---5-5---3-3---6-6--------6h7--------|
D|--5-5---3-3---6-6---0-2-0-2-0---5-5---3-3---6-6-------------------|
[ Tab from: http://www.guitaretab.com/i/inme/33628.html ]
e|------------------------------------------------------------------|
B|------------------------------------------------------------------|
G|------------------------------------------------------------------|
D|--5-5---3-3---6-6---------------5-5---3-3---6-6----6h7------------|
A|--5-5---3-3---6-6---0-2-0-2-0---5-5---3-3---6-6--------6h7--------|
D|--5-5---3-3---6-6---0-2-0-2-0---5-5---3-3---6-6-------------------|

Interlude
e|--------------|
B|--------------|
G|--------------|
D|-55-55-55-5-5-|
A|-55-55-55-5-5-|
D|-55-55-55-5-5-|
Pm .. .. .. . .

e|----------------------------------------|
B|-----0----0--------------0----0---------|
G|---------------5----2--------------5----|
D|--55---55---44---11---55---55---44---1--|
A|--55---55---44---11---55---55---44---1--|
D|--55---55---44---11---55---55---44---1--|
 Pm ..   ..   ..   ..   ..   ..   ..   .

Chorus
e|-------------------15---------------------------------------------|
B|------------------------------------------------------------------|
G|------------------------------------------------------------------|
D|--555---333---6-6-------555---333---6-6----6h7--------------------|
A|--555---333---6-6-------555---333---6-6--------6h7----------------|
D|--555---333---6-6-------555---333---6-6---------------------------|
Pm  ...   ...   . .       ...   ...   . . 

e|-------------------15---------------------------------------------|
B|------------------------------------------------------------------|
G|------------------------------------------------------------------|
D|--555---333---6-6-------555---333---6-6---1/----------------------|
A|--555---333---6-6-------555---333---6-6---1/----------------------|
D|--555---333---6-6-------555---333---6-6---1/----------------------|
Pm  ...   ...   . .       ...   ...   . .

Verse
e|------------------------------------------------------------------|
B|------------------------------------------------------------------|
G|------------------------------------------------------------------|
D|--5-5---3-3---6-6---------------5-5---3-3---6-6----6h7------------|
A|--5-5---3-3---6-6---0-2-0-2-0---5-5---3-3---6-6--------6h7--------|
D|--5-5---3-3---6-6---0-2-0-2-0---5-5---3-3---6-6-------------------|

e|------------------------------------------------------------------|
B|------------------------------------------------------------------|
G|------------------------------------------------------------------|
D|--5-5---3-3---6-6---------------5-5---3-3---6-6----6h7------------|
A|--5-5---3-3---6-6---0-2-0-2-0---5-5---3-3---6-6--------6h7--------|
D|--5-5---3-3---6-6---0-2-0-2-0---5-5---3-3---6-6-------------------|

Interlude
e|--------------|
B|--------------|
G|--------------|
D|-55-55-55-5-5-|
A|-55-55-55-5-5-|
D|-55-55-55-5-5-|
Pm .. .. .. . .

e|------------------------------------------|
B|-----0----0--------------0----0-----------|
G|---------------5----2--------------5----2-|
D|--55---55---44---11---55---55---44---11---|
A|--55---55---44---11---55---55---44---11---|
D|--55---55---44---11---55---55---44---11---|
 Pm ..   ..   ..   ..   ..   ..   ..   ..


e|---------------------------------------------|
B|-----0----0--------------0----0--------------|
G|---------------5----2--------------5----2----|
D|--55---55---44---11---55---55---44---11----5-|
A|--55---55---44---11---55---55---44---11----5-|
D|--55---55---44---11---55---55---44---11----5-|
 Pm ..   ..   ..   ..   ..   ..   ..   ..

Related for Alaya tab