Song name
# A B C D E F G H I J K L M N O P Q R S T U V W X Y Z

Inme - Safe In A Room tab

Title: Safe In A Room
Artist: InMe
Album: White Butterfly
Tabbed by: Gary Bradley (man legend)
Tuning: E A D G B E 

Intro:

|-------------------------------------------------------------------------|
|-------------------------------------------------------------------------|
|-------------------------------------------------------------------------|
|-2--2-2--2-1--1-1-1-1-2--2-2-2--2-1-1--1-1-1-2--2--2-2--2-1--1-1-1-1-2-2-|
|-0--0-0--0-0--0-0-0-0-0--0-0-0--0-0-0--0-0-0-0--0--4-4--4-4--4-4-4-4-4-4-|
|-------------------------------------------------------------------------|

|-------------------------------------------------------------------------|
|-------------------------------------------------------------------------|
|-2-2--2-1--1-1-1-1--2-2-2--1-1--1-1--1-1-1-1-1-1-1--6--6--6-6--7-7-7-7-7-|
|-4-4--4-4--4-4-4-4--4-4-4--2-2--2-2--2-2-2-2-2-2-2--4--4--4-4--4-4-4-4-4-|
|-------------------------------------------------------------------------|
|-------------------------------------------------------------------------|

|-------------------------------------------------------|
|-------------------------------------------------------|
|-------------------------------------------------------|
|-2-2--2-1--1-1-1-1--2-2--2-2--2-1--1-1-1-1-1-2-2-------|
|-0-0--0-0--0-0-0-0--0-0--0-0--0-0--0-0-0-0-0-0-0-------|
|-------------------------------------------------------|

Still working on the verse, should be done in next couple of weeks i have my hands full at the moment.
Tap to rate this tab
# A B C D E F G H I J K L M N O P Q R S T U V W X Y Z