Song name
# A B C D E F G H I J K L M N O P Q R S T U V W X Y Z

Inme - Just A Glimpse tab

JUST A GLIMPSE - INME

INTRO
E|-------------------------------------------|
B|-------------------------------------------|
G|-------------------------------------------|
D|-0---0---0-0---0---0--------------8-XX7-7^-|
A|-9-XX9-XX9-9-XX9-XX9-10-XX13-XX12-8-XX8----|
D|-0-XX0-XX0-0-XX0-XX0-8--XX8--XX8--8-XX8----|

E|-----------------------------------------------|
B|-----------------------------------------------|
G|---------------------------------------7h10----|
D|-0---0---0-0---0---0-3-XX5-XX5-7-7-7h10----10^-|
A|-9-XX9-XX9-9-XX9-XX9-3-XX3-XX3-8-8-------------|
D|-0-XX0-XX0-0-XX0-XX0-3-XX3-XX3-8-8-------------|

E|---------------------------------------------------------------|
B|---------------------------------------------------------------|
G|---------------------------------------------------------------|
D|-0-00-000---------------------------------------------8-XX7-7^-|
A|-9-99-999--------------------------------10-XX13-XX12-8-XX8----|
D|-0-00-000-20p019p017p019p017p015p01415p0-8--XX8--XX8--8-XX8----|

E|-------------------------------------------------------------------|
B|-------------------------------------------------------------------|
G|-----------------------------------------------------------7h10----|
D|-0-00-000--------------------------------3-XX5-XX5-7-7-7h10----10^-|
A|-9-99-999--------------------------------3-XX3-XX3-8-8-------------|
D|-0-00-000-20p019p017p019p017p015p01415p0-3-XX3-XX3-8-8-------------|


VERSE 1
E|-------10---------------12--------------------12-------13---12--------|
B|---10-----10--10----10-----10---10------13-------13--------------13---|
G|-7---7------7---7-7---7-------7----7-10----10-------10----------------|
D|----------------------------------------------------------------------|
A|----------------------------------------------------------------------|
D|----------------------------------------------------------------------| X3

CAN PLAY THIS TOO .. YOU'LL HEAR WHERE .. INSTEAD OF THE 13-12-13 ABOVE
E|-----------------------------------------------------------------------|
B|-----------------------------------------------------------------------|
G|-----------------------------------------------------------------------|
D|-----------------------------------------------------------------------|
A|-----------------------------------------------------------------------|
D|-------------------------------------------------------01010-01010-010-| 

E|-------10---------------12--------------------12-------|
B|---10-----10--10----10-----10---10------13-------13----|
G|-7---7------7---7-7---7-------7----7-10----10-------10-|
D|-------------------------------------------------------|
A|-------------------------------------------------------|
D|-------------------------------------------------------|

E|----------------------------------|
B|----------------------------------|
G|----------------------------------|
D|----------------------------------|
A|----------------------------------|
D|-20p019p017p019p017p015p014p015p0-|


CHORUS
E|---------------------------------------------------------------|
B|---------------------------------------------------------------|
G|---------------------------------------------------------------|
D|--8-888-8-8-8-5-555-5-5-5-7-777-7-7-7--------------------------|
A|--8-888-8-8-8-5-555-5-5-5-7-777-7-7-7--------------------------|
D|--8-888-8-8-8-5-555-5-5-5-7-777-7-7-7-8p07p05p07p05p03p02p03p0-|

E|-----------------------------------------------------------------------|
B|-----------------------------------------------------------------------|
G|-----------------------------------------------------------------------|
D|--8-888-8-8-8-5-555-5-5-5-0-000-0-0-0----------------------------------|
A|--8-888-8-8-8-5-555-5-5-5-0-000-0-0-0----------------------------------|
D|--8-888-8-8-8-5-555-5-5-5-0-000-0-0-0-20p019p017p019p017p015p014p014p0-|
PM                  . . . .

E|---------------------------------------------------------------|
B|---------------------------------------------------------------|
G|---------------------------------------------------------------|
D|--8-888-8-8-8-5-555-5-5-5-7-777-7-7-7--------------------------|
A|--8-888-8-8-8-5-555-5-5-5-7-777-7-7-7--------------------------|
D|--8-888-8-8-8-5-555-5-5-5-7-777-7-7-7-8p07p05p07p05p03p02p03p0-|

E|------------------------------------------------------|
B|------------------------------------------------------|
G|------------------------------------------------------|
D|--8-888-8-8-8-5-555-5-5-5-0-000-0-0-0-----------------|
A|--8-888-8-8-8-5-555-5-5-5-0-000-0-0-0-----------------|
D|--8-888-8-8-8-5-555-5-5-5-0-000-0-0-0-01010-01010-010-| (10's NOT 1-0's)
PM                  . . . .


VERSE 2
E|------------------------------------------------------|
B|------------------------------------------------------|
G|------------------------------------------------------|
D|------------------------------------------------------|
A|------------------------------------------------------|
D|--0-000-0-0-0-0-000-0-0-0-8-888-8-8-8-01010-01010-010-|

E|-----------------------------------------------------------------------|
B|-----------------------------------------------------------------------|
G|-----------------------------------------------------------------------|
D|-----------------------------------------------------------------------|
A|--0-000-00000-0-000-00000-3-333-3-3-3----------------------------------|
D|--0-000-00000-0-000-00000-3-333-3-3-3-20p019p017p019p017p015p014p014p0-|


CHORUS 2
E|---------------------------------------------------------------|
B|---------------------------------------------------------------|
G|---------------------------------------------------------------|
D|--8-888-8-8-8-5-555-5-5-5-7-777-7-7-7--------------------------|
A|--8-888-8-8-8-5-555-5-5-5-7-777-7-7-7--------------------------|
D|--8-888-8-8-8-5-555-5-5-5-7-777-7-7-7-8p07p05p07p05p03p02p03p0-|

E|-----------------------------------------------------------------------|
B|-----------------------------------------------------------------------|
G|-----------------------------------------------------------------------|
D|--8-888-8-8-8-5-555-5-5-5-0-000-0-0-0----------------------------------|
A|--8-888-8-8-8-5-555-5-5-5-0-000-0-0-0----------------------------------|
D|--8-888-8-8-8-5-555-5-5-5-0-000-0-0-0-20p019p017p019p017p015p014p014p0-|
PM                  . . . .

E|---------------------------------------------------------------|
B|---------------------------------------------------------------|
G|---------------------------------------------------------------|
D|--8-888-8-8-8-5-555-5-5-5-7-777-7-7-7--------------------------|
A|--8-888-8-8-8-5-555-5-5-5-7-777-7-7-7--------------------------|
D|--8-888-8-8-8-5-555-5-5-5-7-777-7-7-7-8p07p05p07p05p03p02p03p0-|

E|------------------------------------------------------|
B|------------------------------------------------------|
G|------------------------------------------------------|
D|--8-888-8-8-8-5-555-5-5-5-0-000-0-0-0-----------------|
A|--8-888-8-8-8-5-555-5-5-5-0-000-0-0-0-----------------|
D|--8-888-8-8-8-5-555-5-5-5-0-000-0-0-0-----------------|
PM                  . . . .


CHORUS 3
E|--------------------------------------------------------|
B|--------------------------------------------------------|
G|--------------------------------------------------------|
D|--8-888-8-8-8-5-101010-10-10-10-7-777-7-7-7-7-777-7-7-7-|
A|--8-888-8-8-8-5-101010-10-10-10-7-777-7-7-7-7-777-7-7-7-|
D|--8-888-8-8-8-5-101010-10-10-10-7-777-7-7-7-7-777-7-7-7-|

E|--------------------------------------------------------|
B|--------------------------------------------------------|
G|--------------------------------------------------------|
D|--8-888-8-8-8-5-101010-10-10-10-0-000-0-0-0-0-000-0-0-0-|
A|--8-888-8-8-8-5-101010-10-10-10-0-000-0-0-0-0-000-0-0-0-|
D|--8-888-8-8-8-5-101010-10-10-10-0-000-0-0-0-0-000-0-0-0-|

E|--------------------------------------------------------|
B|--------------------------------------------------------|
G|--------------------------------------------------------|
D|--8-888-8-8-8-5-101010-10-10-10-7-777-7-7-7-7-777-7-7-7-|
A|--8-888-8-8-8-5-101010-10-10-10-7-777-7-7-7-7-777-7-7-7-|
D|--8-888-8-8-8-5-101010-10-10-10-7-777-7-7-7-7-777-7-7-7-|

E|-------------------------------------------------------------------------------------|
B|-------------------------------------------------------------------------------------|
G|-------------------------------------------------------------------------------------|
D|--8-888-8-8-8-5-101010-10-10-10------------------------------------------------------|
A|--8-888-8-8-8-5-101010-10-10-10------------------------------------------------------|
D|--8-888-8-8-8-5-101010-10-10-10-4*4*4*4*3*4*4*4*4*4*4*3*4*4*4*4*4*4*3*4*4*4*4*4*4*3*-|


BRIDGE
E|------------------------------------------------------------------------|
B|------------------------------------------------------------------------|
G|------------------------------------------------------------------------|
D|------8--------12------8--------12--------10--------12-------10------12-|
A|----8-------12-------8-------12--------10--------12-------10-------12---|
D|--8------12--------8------12--------10--------12-------10-------12------|

E|------------------------------------------------------------------|
B|------------------------------------------------------------------|
G|------------------------------------------------------------------|
D|------------------------------------------------------------------|
A|------------------------------------------------------------------|
D|-20p019p017p019p020p019p017p019p020p019p017p019p017p015p014p015p0-|


OUTRO
E|--------------------------------------------------------|
B|--------------------------------------------------------|
G|--------------------------------------------------------|
D|--8-888-8-8-8-5-101010-10-10-10-7-777-7-7-7-7-777-7-7-7-|
A|--8-888-8-8-8-5-101010-10-10-10-7-777-7-7-7-7-777-7-7-7-|
D|--8-888-8-8-8-5-101010-10-10-10-7-777-7-7-7-7-777-7-7-7-|

E|--------------------------------------------------------|
B|--------------------------------------------------------|
G|--------------------------------------------------------|
D|--8-888-8-8-8-5-101010-10-10-10-0-000-0-0-0-0-000-0-0-0-|
A|--8-888-8-8-8-5-101010-10-10-10-9-999-9-9-9-9-999-9-9-9-|
D|--8-888-8-8-8-5-101010-10-10-10-0-000-0-0-0-0-000-0-0-0-|

E|--------------------------------------------------------|
B|--------------------------------------------------------|
G|--------------------------------------------------------|
D|--8-888-8-8-8-5-101010-10-10-10-7-777-7-7-7-7-777-7-7-7-|
A|--8-888-8-8-8-5-101010-10-10-10-7-777-7-7-7-7-777-7-7-7-|
D|--8-888-8-8-8-5-101010-10-10-10-7-777-7-7-7-7-777-7-7-7-|

E|--------------------------------|
B|--------------------------------|
G|--------------------------------|
D|--8-888-8-8-8-5-101010-10-10-10-|
A|--8-888-8-8-8-5-101010-10-10-10-|
D|--8-888-8-8-8-5-101010-10-10-10-|

E|-------------------------------------------|
B|-------------------------------------------|
G|-------------------------------------------|
D|-0---0---0-0---0---0--------------8-XX7-7^-|
A|-9-XX9-XX9-9-XX9-XX9-10-XX13-XX12-8-XX8----|
D|-0-XX0-XX0-0-XX0-XX0-8--XX8--XX8--8-XX8----|

E|-----------------------------------------------|
B|-----------------------------------------------|
G|---------------------------------------7h10----|
D|-0---0---0-0---0---0-3-XX5-XX5-7-7-7h10----10^-|
A|-9-XX9-XX9-9-XX9-XX9-3-XX3-XX3-8-8-------------|
D|-0-XX0-XX0-0-XX0-XX0-3-XX3-XX3-8-8-------------|

E|---|
B|---|
G|---|
D|-0-|
A|-9-|
D|-0-|
Tap to rate this tab
# A B C D E F G H I J K L M N O P Q R S T U V W X Y Z