Song name
# A B C D E F G H I J K L M N O P Q R S T U V W X Y Z

Inme - Angels With Snipers tab

....Angels With Snipers - InMe....

Tuning:Drop D

Tabbed by and transcirpted by:broken whisper

Intro

Echo

|---------------|
|---------------|
|----10-9-------|
|----------10---|
|---------------|
|---------------|

|---------------------------|
|---------------------------|
|--10-12-12--12-12-12-12-12-|
|---------------------------|
|---------------------------|
|---------------------------|

|---------------|
|---------------|
|----10-7-7-----|
|---------------|
|---------------|
|---------------|

|---------------------------|
|---------------------------|
|--10-9-9-9-10--10-10-10-10-|
|---------------------------|
|---------------------------|
|---------------------------|All this with echo effect
Distortion

Gtr 1

|----------------------------------|
|----------------------------------|
|--10-9-------10-9-----------------|
|-------10---------10--------------|
|----------10~--------10-12--------|
|----------------------------------|

|----------------------------------|
|----------------------------------|
|--10-9----------------------------|
|-------10-------------------------|
|----------10~---12-10-8-7---------|
|----------------------------------|

|----------------------------------|
|----------------------------------|
|--10-9-------10-9-----------------|
|-------10---------10--------------|
|----------10~--------10-12--------|
|----------------------------------|

|----------------------------------|
|----------------------------------|
|--10-9----------------------------|
|-------10-------------------------|
|----------10~-10-12-10-8-10-8-----|
|----------------------------------|

Gtr 2

|----------------------------------|
|----------------------------------|
|----------------------------------|
|----8--10-12-8-7---8--10--12--13--|
|----8--10-12-8-7---8--10--12--13--|
|----8--10-12-8-7---8--10--12--13--|

Verse

Echo effect again
|----------------------------------|
|----------------------------------|
|-1010-10-10-10-10-10-10-10-10-----|
|----------------------------------|
|----------------------------------|
|----------------------------------|

|----------------------------------|
|----------------------------------|
|-1414-14-14-14-14-14-14-14-14-----|
|----------------------------------|
|----------------------------------|
|----------------------------------|


|----------------------------------|
|----------------------------------|
|-1212-12-12-12-12-12-12-12-12-----|
|----------------------------------|
|----------------------------------|
|----------------------------------|

|----------------------------------|
|----------------------------------|
|-99-9-9-9-9--10-10-10-10----------|
|----------------------------------|
|----------------------------------|
|----------------------------------|x3

Distortion

|-------------------------|
|-------------------------|
|----10----10---10----10--|
|-00----00---00----00-----|
|-------------------------|
|-------------------------|

|-------------------------|
|-------------------------|
|----14----14---12----12--|
|-00----00---00----00-----|
|-------------------------|
|-------------------------|

|-------------------------|
|-------------------------|
|----7-----7-----7----7---|
|-00----00---00----00-----|
|-------------------------|
|-------------------------|

|-------------------------|
|-------------------------|
|----10----10---9-----9---|
|-00----00---00----00-----|
|-------------------------|
|-------------------------|plam mute all the zeros player in this bit. x2

Bridge

Distortion

|----------------------------------|
|----------------------------------|
|----------------------------------|
|---8-8-8-8-8-8-**-8---------------|
|---8-8-8-8-8-8-**-8---------------|
|---8-8-8-8-8-8-**-8---------------|* = palm mute

Chorus
Gtr 1

Distortion

|----------------------------------|
|----------------------------------|
|----------------------------------|
|----8--10-12-8-7---8--10--12--8---|
|----8--10-12-8-7---8--10--12--8---|
|----8--10-12-8-7---8--10--12--8---|

|----------------|
|----------------|
|----------------|
|----8-**-78-7---|
|----8-**-78-7---|
|----8-**-78-7---|

Gtr 2
ECho

|----------------------------------|
|----------------------------------|
|--10-10-10-10----14-14-14-14------|
|----------------------------------|
|----------------------------------|
|----------------------------------|

|----------------------------------|
|----------------------------------|
|--17-17-17-17---9-9-9-9-----------|
|----------------------------------|
|----------------------------------|
|----------------------------------|

|----------------------------------|
|----------------------------------|
|--10-10-10-10----14-14-14-14------|
|----------------------------------|
|----------------------------------|
|----------------------------------|

|----------------------------------|
|----------------------------------|
|--17-17-17-17---9-9-9-9-----9-10--|
|------------------------**--------|
|----------------------------------|
|----------------------------------|

Verse
Echo

|----------------------------------|
|----------------------------------|
|-1010-10-10-10-10-10-10-10-10-----|
|----------------------------------|
|----------------------------------|
|----------------------------------|

|----------------------------------|
|----------------------------------|
|-1414-14-14-14-14-14-14-14-14-----|
|----------------------------------|
|----------------------------------|
|----------------------------------|


|----------------------------------|
|----------------------------------|
|-1212-12-12-12-12-12-12-12-12-----|
|----------------------------------|
|----------------------------------|
|----------------------------------|

|----------------------------------|
|----------------------------------|
|-99-9-9-9-9--10-10-10-10----------|
|----------------------------------|
|----------------------------------|
|----------------------------------|

Distortion

|-------------------------|
|-------------------------|
|----10----10---10----10--|
|-00----00---00----00-----|
|-------------------------|
|-------------------------|

|-------------------------|
|-------------------------|
|----14----14---12----12--|
|-00----00---00----00-----|
|-------------------------|
|-------------------------|

|-------------------------|
|-------------------------|
|----7-----7-----7----7---|
|-00----00---00----00-----|
|-------------------------|
|-------------------------|

|-------------------------|
|-------------------------|
|----10----10---9-----9---|
|-00----00---00----00-----|
|-------------------------|
|-------------------------|plam mute all the zeros player in this bit.

|-------------------------|
|-------------------------|
|----10----10---10----10--|
|-00----00---00----00-----|
|-------------------------|
|-------------------------|

|-------------------------|
|-------------------------|
|----14----14---12----12--|
|-00----00---00----00-----|
|-------------------------|
|-------------------------|

|-------------------------|
|-------------------------|
|----7-----7-----7----7---|
|-00----00---00----00-----|
|-------------------------|
|-------------------------|

|-------------------------|
|-------------------------|
|----10----10-------------|
|-00----00----------------|
|-------------------------|
|-------------------------|plam mute all the zeros player in this bit.

Chorus

Gtr 1
Distortion

|----------------------------------|
|----------------------------------|
|--10-9-------10-9-----------------|
|-------10---------10--------------|
|----------10~--------10-12--------|
|----------------------------------|

|----------------------------------|
|----------------------------------|
|--10-9----------------------------|
|-------10-------------------------|
|----------10~---12-10-8-7---------|
|----------------------------------|

|----------------------------------|
|----------------------------------|
|--10-9-------10-9-----------------|
|-------10---------10--------------|
|----------10~--------10-12--------|
|----------------------------------|

|----------------------------------|
|----------------------------------|
|--10-9----------------------------|
|-------10-------------------------|
|----------10~-10-12-10-8-10-8-----|
|----------------------------------|

Gtr 2
Distortion

|----------------------------------|
|----------------------------------|
|----------------------------------|
|----8--10-12-8-7---8--10--12--13--|
|----8--10-12-8-7---8--10--12--13--|
|----8--10-12-8-7---8--10--12--13--|


Gtr 1
Distortion

|----------------------------------|
|----------------------------------|
|--10-9-------10-9-----------------|
|-------10---------10--------------|
|----------10~--------10-12--------|
|----------------------------------|

|----------------------------------|
|----------------------------------|
|--10-9----------------------------|
|-------10-------------------------|
|----------10~---12-10-8-7---------|
|----------------------------------|

|----------------------------------|
|----------------------------------|
|--10-9-------10-9-----------------|
|-------10---------10--------------|
|----------10~--------10-12--------|
|----------------------------------|

|----------------------------------|
|----------------------------------|
|--10-9----------------------------|
|-------10-------------------------|
|----------10~-10-12-10-8-12B-8~---|
|----------------------------------|

Gtr 2
Distortion

|----------------------------------|
|----------------------------------|
|----------------------------------|
|----8--10-12-8-7---8--10--12------|
|----8--10-12-8-7---8--10--12------|
|----8--10-12-8-7---8--10--12------|

Extended Chorus


Gtr 1
Distortion

|----------------------------------|
|----------------------------------|
|--10-9-------10-9-----------------|
|-------10---------10--------------|
|----------10~--------10-12--------|
|----------------------------------|

|----------------------------------|
|----------------------------------|
|--10-9----------------------------|
|-------10-------------------------|
|----------10~---12-10-8-7---------|
|----------------------------------|

|----------------------------------|
|----------------------------------|
|--10-9-------10-9-----------------|
|-------10---------10--------------|
|----------10~--------10-12--------|
|----------------------------------|

|--------------------------------------------|
|------------------------------10-13---------|
|--10-9------------------10-12-------10-12---|
|-------10---------10-12---------------------|
|----------10~-10~---------------------------|
|--------------------------------------------|

Gtr 2
Distortion

|----------------------------------|
|----------------------------------|
|----------------------------------|
|----8--10-12-8-7---8--10--12------|
|----8--10-12-8-7---8--10--12------|
|----8--10-12-8-7---8--10--12------|

Gtr 1
Distortion

|----------------------------------|
|----------------------------------|
|--10-9-------10-9-----------------|
|-------10---------10--------------|
|----------10~--------10-12--------|
|----------------------------------|

|----------------------------------|
|----------------------------------|
|--10-9----------------------------|
|-------10-------------------------|
|----------10~---12-10-8-7---------|
|----------------------------------|

|----------------------------------|
|----------------------------------|
|--10-9-------10-9-----------------|
|-------10---------10--------------|
|----------10~--------10-12--------|
|----------------------------------|

                     *   *
|----------------------------------|
|----------------------------------|
|--10-9----------------9---9-10~---|
|-------10-----------0---0---------|
|----------10~-12~-----------------|
|----------------------------------|Palm mute the last two zeros

I think that most of this tab is nere enough Right but feel free to correct me Theres 
one other tab aroudn i think.

....End....
Tap to rate this tab
# A B C D E F G H I J K L M N O P Q R S T U V W X Y Z