Song name
# A B C D E F G H I J K L M N O P Q R S T U V W X Y Z

Inme - Ruins Acoustic tab

Highlighted       Show chord diagrams
-----------------------------------------------------------------
Ruins - acoustic
-----------------------------------------------------------------

This is taken from a live recording at a shop signing or something...anyway enjoy

any q's t_van_kleek@hotmail.com

Chords used

   D5  Gmaj  Bsus2  F#/Bmin  Asus2  Bbmaj G5   Bb/Eb
e|-0---3-----2------2--------0-----------------------------------|
B|-3---3-----2------3--------0-----------------------------------|
G|-2---0-----4------4--------2------7----------8-----------------|
D|-0---0-----4------4--------2------8-----5----8-----------------|
A|-----2-----2------2--------0------8-----5----6-----------------|
E|-----3-----2------2---------------6-----3----6-----------------|


  Intro

e|-0--22222222--333--22222222--00--2222222--5-2-22222222---------|
B|-3--33333333--333--33333333--33--3333333--3-3-33333333---------|
G|-2--22222222--222--22222222--22--2222222--2-2-22222222---------|
D|-0--00000000--000--00000000--00--0000000--0-0-00000000---------|
A|---------------------------------------------------------------|
E|---------------------------------------------------------------|


e|-0--3--2--2--3-------------------------------------------------|
B|-3--3--2--3--3-------------------------------------------------|
G|-2--0--4--4--0-------------------------------------------------|
D|-0--0--4--4--0-------------------------------------------------|
A|----2--2--2--2-------------------------------------------------|
E|----3--2--2--3-------------------------------------------------|




D5                            Gmaj      Bsus2
Remove the cables from my sins,

F#/Bmin  Bsus2    F#/Bmin   Gmaj          
Add to your collection of all my things,

D5                            Gmaj
She sails away to an unknown land,

Bsus2                         Gmaj          Asus2
And all these words will never be the same,

Bsus2               Gmaj          Asus2
Take me back to the real world,
  
Bsus2             Gmaj            Asus2
Gifts of anger in all of my wasted days,

Bsus2           Gmaj              Asus2
Get away if the pillars fall,

Bsus2           Gmaj        D5
My wicked ways,

D5                      Gmaj      Bsus2
Adapt to all of my conflicts,

F#/Bmin Bsus2      F#/Bmin  Gmaj      D5
Illegal spells are in the air again,

D5                          Gmaj    Bsus2
It's a wish so simple and insane,

F#/Bmin       Bsus2    F#/Bmin  Gmaj         Asus2
And all these words will never be the same,

Bsus2               Gmaj          Asus2
Take me back to the real world,
  
Bsus2             Gmaj            Asus2
Gifts of anger in all of my wasted days,

Bsus2           Gmaj              Asus2
Get away if the pillars fall,

Bsus2     Gmaj      Bbmaj   G5  
My wicked ways,

Bb/Eb    Bbmaj   G5  
It's all ruins,

Bb/Eb    Bbmaj     G5  
It's all crumbled,

Bb/Eb    Bbmaj   G5  
They are ruins, 


  Break           Play Asus2 just before singing again

e|-0--3--2--2--3-----0-------------------------------------------|
B|-3--3--2--3--3-----0-------------------------------------------|
G|-2--0--4--4--0-----2-------------------------------------------|
D|-0--0--4--4--0-----2-------------------------------------------|
A|----2--2--2--2-----0-------------------------------------------|
E|----3--2--2--3-------------------------------------------------|


Bsus2               Gmaj          Asus2
Take me back to the real world,
  
Bsus2             Gmaj            Asus2
Gifts of anger in all of my wasted days,

Bsus2           Gmaj              Asus2
Get away if the pillars fall,

Bsus2     Gmaj      Bbmaj   G5          
My wicked ways,

Bb/Eb    Bbmaj   G5  
It's all ruins,

Bb/Eb    Bbmaj     G5  
It's all crumbled,

Bb/Eb    Bbmaj   G5  Bb/Eb   D5
They are ruins, 

D5       Gmaj    Bsus2  F#/Bmin  Bsus2
It's all ruins,

F#/Bmin  Gmaj    D5
It's all ruins.
Tap to rate this tab
# A B C D E F G H I J K L M N O P Q R S T U V W X Y Z