Guitaretab - guitar tabs
Song name
# A B C D E F G H I J K L M N O P Q R S T U V W X Y Z

Inme - Every Whisper Aches tab

Inme - Every Whisper Aches

Tuning: Drop D

tabbed By me BrokenWhisper

intro

|------------------------------|
|------------------------------|
|--------2-----------2---------|
|------------------------------|
|----3-----3------3-----3------|
|--3------------3--------------|

|------------------------------|
|------------------------------|
|--------2-----------2---------|
|------------------------------|
|----3-----3------3-----3------|
|--3------------3--------------|

|---------------------------------------|
|---------------------------------------|
|---------------------------------------|
|------3/5~----3~------2~-------2-------|
|----0-------0-------0--------0---0-----|
|--0-------0-------0--------0-----------|

Verse

|------------------------------|
|------------------------------|
|--------2-----------2---------|
|------------------------------|
|----3-----3------3-----3------|
|--3------------3--------------|

|------------------------------|
|------------------------------|
|--------2-----------2---------|
|------------------------------|
|----3-----3------3-----3------|
|--3------------3--------------|
[ Tab from: http://www.guitaretab.com/i/inme/82742.html ]
|---------------------------------------|
|---------------------------------------|
|---------------------------------------|
|------3/5~----3~------2~-------2-------|
|----0-------0-------0--------0---0-----|
|--0-------0-------0--------0-----------|

|---------------------------------------|
|---------------------------------------|
|---------------------------------------|
|------7-----12----7-----12------7-12---|
|----8-----8-----8-----8-------7--------|
|--8-----8-----8-----8-------7----------|


|------------------|
|------------------|
|------------------|
|--12b-8-777-------|
|------------------|
|------------------|

Little echoy bit in the background.

|-------------|
|-------------|
|-------------|
|--10-12-14---|
|-------------|
|-------------|

|---------17-19-20-22--|
|----------------------|
|----------------------|
|-10-12----------------|
|----------------------|
|----------------------|


|-----------------------|
|-----------------------|
|-----------------------|
|-7-7-7-12-12b-8-7-77---|
|-----------------------|
|-----------------------|

The next bit is just played for the rest of the song.

|-----------------------------------------|
|-----------------------------------------|
|-----------------------------------------|
|-44444444444444-xx-555555555555555-------|
|-00000000000000-xx-555555555555555-------|
|-00000000000000-xx-555555555555555-------|

Thats pretty much most of the song except maybe behind the "Little Echoy Bit". lol
ill put it on when i find it out.
Related for Every Whisper Aches tab
Advertisement will be closed in 10 seconds