Song name
# A B C D E F G H I J K L M N O P Q R S T U V W X Y Z

Inner Stereo - World Today tab

This song is played in -Dropped D-,
but it doesn't matter.

E-11-10-8---/-11-10-8-10-|
H---------8-/------------|
G-----------/------------|
D-----------/------------|  4x
A-----------/------------|
D-----------/------------|

E-11-10-8------6---------|
H---------8-10-----6-----|
G----------------8---8-7-|
D------------------------| 1x
A------------------------|
D------------------------|

http://www.inner-stereo.de/
Tap to rate this tab
# A B C D E F G H I J K L M N O P Q R S T U V W X Y Z