Song name
# A B C D E F G H I J K L M N O P Q R S T U V W X Y Z

Innuendo - Running Away tab

                      this song is called running away
                    by innuendo (in australia) 
intro guitar 1
|------------------------------------------------------|
|------------------------------------------------------|
|-7-7-7-7-9-9-9-10-10-9-7-5-7-7-7-7-9-9-9s12-12-10-9-10|
|-0-0-0-0-0-0-0-0--0--0-0-0-0-0-0-0-0-0-0-0--0--0--0-0-|
|------------------------------------------------------|
|------------------------------------------------------|

|------------------------------------------------------|
|------------------------------------------------------|
|-7-7-7-7-9-9-9-10-10-9-7-5-7-7-7-7-9-9-9s12-12-10-9-10|
|-0-0-0-0-0-0-0-0--0--0-0-0-0-0-0-0-0-0-0-0--0--0--0-0-|
|------------------------------------------------------|
|------------------------------------------------------|

|---------------------------------------------------------|
|---------------------------------------------------------|
|s12-12-12-10-10-10-12-12-12-12s14-12-14s15-14-15s17-17-17|
|-0--0--0--0--0--0--0--0--0--0--0--0--0--0--0--0--0--0--0-|
|---------------------------------------------------------|
|---------------------------------------------------------|

|---------------------------------------------------------|
|---------------------------------------------------------|
|-15-15-15-17-17-17-17-17s19-17-19s21-19-22-21-21-21-19-21|
|-0--0--0--0--0--0--0--0--0--0--0--0--0--0--0--0--0--0--0-|
|---------------------------------------------------------|
|---------------------------------------------------------|

|---------------------------------------------------------|
|---------------------------------------------------------|
|-17-17-17-19-15-17-14-14-14-15-12-14-10-10-10-12-9-10-9--|
|-0--0--0--0--0--0--0--0--0--0--0--0--0--0--0--0--0-0--0--|
|---------------------------------------------------------|
|---------------------------------------------------------|

|--------------------------------------------------------|
|--------------------------------------------------------|
|-7-7--7--7--7-7-7-7-7-7-7-repeat-2-then--7-5-7-7-5-7----|
|-0-10-10-10-9-9-9-8-8-8-7----------------0-0-0-0-0-0----|
|--------------------------------------------------------|
|--------------------------------------------------------|
chorus repeat 4x with distortion
|------------------------------------------|
|------------------------------------------|
|---------7-7-7----------------------------|
|-9-9--5--7-7-7-7-7-7----------------------|
|-9-9--5--5-5-5-7-7-7----------------------|
|-7-7--3--------5-5-5----------------------|
verse same as intro except repeat first bit only
chorus
verse
guitar solo

|------------------------------------------------------------------------|
|---------------------------------------------------------10-10-10-10----|
|9(11)-9(11)-9(11)9p7-9-9(11)-9(11)-9(11)9p7-9-9(11)-9(11)--11-11-11-11p9|
|------------------------------------------------------------------------|
|------------------------------------------------------------------------|
|------------------------------------------------------------------------|

|-----------------------------------------------------------------------|
|-------------------------------------------------10----10----10--------|
|----7h9p7---7-9(11)9p7-------7h9p7---7-9(11)9p7h9--9(11)-9(11)-9(11)9p7|
|-7h9-------9------------9-7h9-------9----------------------------------|
|-----------------------------------------------------------------------|
|-----------------------------------------------------------------------|

chorus
the outro same as intro
Tap to rate this tab
# A B C D E F G H I J K L M N O P Q R S T U V W X Y Z