Song name
# A B C D E F G H I J K L M N O P Q R S T U V W X Y Z

Innuendo - Human Wall tab

             this song is called human wall its by innuendo
             the tuning is standard eadgbe
intro repeat 2 times

|------------------------------------------|
|------------------------------------------|
|------------------------------------------|
|-------7-7--------------------------------|
|-11-11-9-9-7-7-6-6-9-9--------------------|
|-9--9------5-5-4-4-7-7--------------------|

intro heavy bit

|----------------------------------------------------------------------|
|----------------------------------------------------------------------|
|-------------------9-9-9-9-9-9-9-9------------------------------------|
|-1111111111111111--9-9-9-9-9-9-9-9--7-7-7-7-7-7-7-7--6-6-6-6--9-9-9-9-|
|-1111111111111111--7-7-7-7-7-7-7-7--7-7-7-7-7-7-7-7--6-6-6-6--9-9-9-9-|
|-9-9-9-9-9-9-9-9--------------------5-5-5-5-5-5-5-5--4-4-4-4--7-7-7-7-|

verse same as intro heavy bit but palm muted up and down picking 
repeat 4 times the fourth time with out palm muting though.
chorus repeat twice all of it

|-----------------------------------------------------------------|
|-----------------------------------------------------------------|
|------------------------9-9-9-9-9-9-9-9--11-11-11-11-11-11-11-11-|
|11-11-11-11-11-11-11-11-9-9-9-9-9-9-9-9--11-11-11-11-11-11-11-11-|
|11-11-11-11-11-11-11-11-7-7-7-7-7-7-7-7--9--9--9--9--9--9--9--9--|
|9--9--9--9--9--9--9--9-------------------------------------------|

|--------------------------------|
|--------------------------------|
|-14--14--14--14--14--14--14--14-|
|-14--14--14--14--14--14--14--14-|
|-12--12--12--12--12--12--12--12-|
|--------------------------------|


|------------------------------------------------------------------------|
|------------------------------------------------------------------------|
|------------------------9-9-9-9-9-9-9-9---------------------------------|
|11-11-11-11-11-11-11-11-9-9-9-9-9-9-9-9--7-7-7-7-7-7-7-7-6-6-6-6-9-9-9-9|
|11-11-11-11-11-11-11-11-7-7-7-7-7-7-7-7--7-7-7-7-7-7-7-7-6-6-6-6-9-9-9-9|
|9--9--9--9--9--9--9--9-------------------5-5-5-5-5-5-5-5-4-4-4-4-7-7-7-7|

intro part
verse 2 is a funk riff all upstrokes

|----------------------------------|
|----------------------------------|
|----------------------------------|
|------9--9------------------------|
|11-11-7--7--7--7--6--9------------|
|9--9--------5--5--4--7------------|

chorus 
guitar solo

|--------9-------------9-------------9------------9---9--12-(14)-|
|--------9-12-9--------9-12-9--------9-12-9-------9-12-----------|
|-11-(13)-------11-(13)-------11-(13)-------11-(13)--------------|
|----------------------------------------------------------------|
|----------------------------------------------------------------|
|----------------------------------------------------------------|

|-9h12p9----9----------------------------------------------------|
|--------12---12-(14)-12(14)-12-(14)-12-9h12p9-------------------|
|---------------------------------------------11p9-11-(13)-11-(13)
|----------------------------------------------------------------|
|----------------------------------------------------------------|
|----------------------------------------------------------------|

|----------------------------------------------------------------|
|-9h12p9---------------------------------------------------------|
|--------11-(13)-11---------9----9-11-(13)-9h11p9s8--------------|
|-------------------11p9h11---11--------------------11-----------|
|----------------------------------------------------------------|
|----------------------------------------------------------------|

bridge play the intro 4 times but on the fourth 1 build up to the chorus.
chorus
finish


















Tap to rate this tab
# A B C D E F G H I J K L M N O P Q R S T U V W X Y Z