Song name
# A B C D E F G H I J K L M N O P Q R S T U V W X Y Z

Innuendo - I Will Know tab

           this song is called i will know by innuendo its a good song 
guitar 1 intro clean
|-5~----3~----1~-|-5-------3------1----1------1-------|
|-5~----3~----1~-|-5-------3--5p3-1---1-1----1-1------|
|-5~----4~----2~-|-5--7p5--4------2------2--2---2-----|
|-7~----5~----3~-|-7-------5------3--3-----3----------|
|----------------|------------------------------------|
|----------------|------------------------------------|

guitar 1 intro 2 repeat this part 2 times
|-5----7---8--7----5--------------3--------------1---1-----1----|
|-5---5-5---5--5---5--------------3-3-3h5p3------1--1-1---1-1---|
|-5--5---5---5--5--5--5-5h7p5-----4---------4-4--2-----2-2---2--|
|-7----------------7----------7-7-5--------------3-3----3-------|
|---------------------------------------------------------------|
|---------------------------------------------------------------|

guitar 2 with wah
|-0---------------------------|
|-1---------------------------|
|-2---------------------------|
|-2---------------------------|
|-0---------------------------|
|-----------------------------|

both guitars play for verse plaw twice guitar 2 keeps repeating rythm part

|-0------0-----3------1-------------------------------------------|
|-1------1-----3------1-------------------------------------------|
|-2-12x--0-6x--0-6x---2-12x---------------------------------------|
|-2------2-----0------3-------------------------------------------|
|-0------3-----2------3-------------------------------------------|
|--------------3------1-------------------------------------------|

guitar 1 plays melody repeat once and on the last both guitae play cord
|----0--------------------0------3-----1~------------and cut out the f
|---1-1---1-1p0h1p0------1-1----3-3----1~------------and go to chorus which
|--2---2-2---------2-----------0---3---2~------------is.
|-2-----2-----------2--2----2----------3~------------
|---------------------3----------------3~------------
|-----------------------------3--------1~------------

chorus repeat twice  end of chorus palm mute
|-0------0-----3----|-1------------------------------|
|-1------1-----3----|-1------------------------------|
|-2-12x--0-6x--0-6x-|-2-12x--------------------------|
|-2------2-----0----|-3------------------------------|
|-0------3-----2----|-3------------------------------|
|--------------3----|-1------------------------------|

intro 2 
verse 2
chorus

guitar solo 
|-------------------------------------------------------------------|
|---------------------------------------8(10)8-8(10)8-5-------------|
|-7(9)7-7(9)7-5-5-7-5-7(9)7-7(9)7-5-7-5-----------------7(9)7(9)7-5-|
|-------------------------------------------------------------------|
|-------------------------------------------------------------------|
|-------------------------------------------------------------------|

|------------------5-5-8-10-8-10-10(12)10-10(12)10-8------|
|-----------5-8-5-8-8-------------------------------------|
|----5-5-7-5----------------------------------------------|
|-5h7-7---------------------------------------------------|
|---------------------------------------------------------|
|---------------------------------------------------------|

|------------------------------------------------------------|
|--10p8---------------------------------------6-6-6-6-6-6-6--|
|-------9p7s5------------------------------------------------|
|-------------7p5--------------------------------------------|
|----------------7p5-3~------3~-3-5-3-5s7-5-7-8-8-8-8-8-8-8--|
|-----------------------5p3h5--5-----------------------------|

intro 2 repeat 2 times on the second build up to the chorus on the f chord

chorus repeat 2 times 

do the intro in reverse the intro 2 bit first then uno

tabbed by steve
lil_steve_93@hotmail.com
Tap to rate this tab
# A B C D E F G H I J K L M N O P Q R S T U V W X Y Z