Song name
# A B C D E F G H I J K L M N O P Q R S T U V W X Y Z

Innuendo - Why Dont tab

                    this song is called why dont its good
                    d=down stroke u+up stroke         
intro
  
|-d-u-d-u--d-u-d-u--d-u-d-u--d-u-d-u-|
|------------------------------------|
|-7-7-7-7-----------5-5-5-5----------|repeat 5 times.
|-7-7-7-7--7-7-7-7--5-5-5-5--5-5-5-5-|
|-5-5-5-5--7-7-7-7--3-3-3-3--5-5-5-5-|
|----------5-5-5-5-----------3-3-3-3-|

verse same as intro but palm mute and last note of each is not palm muted.

chorus
|---------------------|---------------------|---------------------|
|---------------------|---------------------|---------------------|
|-7---------5---------|-7---------5---------|-7--------------5----|
|-7-8x-7----5-8x-5----|-7-8x-5----5-8x-5----|-7-8x-5----7----5-8x-|
|-5----7-8x-3----5-8x-|-5----5-8x-3----5-8x-|-5----5-8x-7-8x-3----|
|------5---------3----|------3---------3----|------3----5---------|

little solo run
|---------------------5----------------------------10---|
|-----------------------8p5--5--------------------------|
|-7(9)-7(9)-7(9)-7(9)-------7--7p5---5------------------|
|----------------------------------7---7p5-7p5----------|
|-----------------------------------------------5-------|
|-------------------------------------------------------|

verse 2 same

chorus

guitar solo

|--d-u-d-u-d-u-d-u-d-u-d-u-d-u-d-u--------|
|------------------5-5-5-5----------------|
|--7-7-7-7-5-5-5-5---------7-7-7-7--------|
|-----------------------------------------|repeat 2 times
|-----------------------------------------|
|-----------------------------------------|

|---------------------------------------------------|
|--------------------------17-17-17-17--------------|
|-19-19-19-19--17-17-17-17-------------19-19-19-19--|repeat 2 times
|---------------------------------------------------|
|---------------------------------------------------|
|---------------------------------------------------|

verse 3

chorus

outro same as intro

tabbed by stephen o'sullivan lil_steve_93@hotmail.com
Tap to rate this tab
# A B C D E F G H I J K L M N O P Q R S T U V W X Y Z