Song name
# A B C D E F G H I J K L M N O P Q R S T U V W X Y Z

Inquisition - Kill With Hate tab

Help us improve GuitareTab! Take a short survey!
Band:  Inquisition
Album: Invoking The Majestic Throne Of Satan
Song:  Kill With Hate
Label: ? (2002)

Transcribed By: nyanchuk
Email:          uklearpower@hotmail.com

**it is probably drop D, but i never do, so i will never make a drop D tab

Tunning D G C F A D



 Riff A:                            x2
|----------------------------------|
|----------------------------------|
|----------------------------------|
|----------------------------------|
|----------------------------------|
|-00230034002300340023003400230034-|

play Riff A x16 (note: a verse consists of x2)


 Riff B              x8
|-------------------|
|-------------------|
|-------------------|
|--3-2-2-2-2-2-2-2--|
|--3-2-2-2-2-2-2-2--|
|--1-0-0-0-0-0-0-0--|

Fill:
|--------------|
|--------------|
|-9--4--5------|
|-9--4--5--5---|
|-7--2--3--5---|
|----------3---|

play Riff B x8
play Fill
play Riff B x8
play Fill
play Riff B x8
play Fill


                                 x3
|-----------------------------------|   |------------------------------------|
|-----------------------------------|   |------------------------------------|
|-----------------------------------|   |------------------------------------|
|-----------------------------------|   |-------------------------------5-6--|
|-----------------------------------|   |-------------------------------5-6--|
|--10341034103410341034103410340134-|   |-1034103410341034103410341034103-4--|
Related for Kill With Hate tab