Song name
# A B C D E F G H I J K L M N O P Q R S T U V W X Y Z

Insane Clown Posse - Peace tab

#----------------------------------PLEASE NOTE---------------------------------#
#This file is the author's own work and represents their interpretation of the-#
#song. You may only use this file for private study, scholarship, or research.-#
#------------------------------------------------------------------------------#

insane clown posse - PEACE
Tabbed By: IGWT
EMail: hbsurfer@cox.net


--------------------------------------
--------------------------------------
-------------------------------------- x2
 -------------------------------------
--5--5--5--5-5-5--7--7--7--7-7-7------
33-33-33-33-3-3-55-55-55-55-5-5-------

------------------
------------------
------------------  x2  
7---5-----7------5
5-7-3-5---5--7-7-3
--5---3------5-9--


--------------------------------------
--------------------------------------
--------------------------------------
 ------------------------------------- x2
--5--5--5--5-5-5--7--7--7--7-7-7------
33-33-33-33-3-3-55-55-55-55-5-5-------


2-23-2--------------------------------
3-3--3-3------------------------------ x2
2-2--2-2------------------------------
--------------------------------------
--------------------------------------
--------------------------------------


--------------------------------------
--------------------------------------
-------------------------------------- x2
 -------------------------------------
--5--5--5--5-5-5--7--7--7--7-7-7------
33-33-33-33-3-3-55-55-55-55-5-5-------

------------------
------------------
------------------  x2  
7---5-----7------5
5-7-3-5---5--7-7-3
--5---3------5-9--


--------------------------------------
--------------------------------------
-------------------------------------- x2
 -------------------------------------
--5--5--5--5-5-5--7--7--7--7-7-7------
33-33-33-33-3-3-55-55-55-55-5-5-------

--------------------------------------
--------------------------------------
--------------------------------------
----14----5---------------------------
-14-12--5-3--------------------------- x2
-12-----3-----------------------------

============================================================================
Tap to rate this tab
# A B C D E F G H I J K L M N O P Q R S T U V W X Y Z