Guitaretab - guitar tabs
Song name
# A B C D E F G H I J K L M N O P Q R S T U V W X Y Z

Insane Clown Posse - I Want My Shit tab

Okay this song (to me)has 2 guitars in it.

artist-INSANE CLOWN POSSE
song-I WANT MY SH*T
label-PSYCHOPATHIC RECORDS
And NO I Do'nt Own This Song

< = Downstroke
> = Upstroke
/ or \ = slide up or down


Chorus: Guitar 1                       x2
1--------------------------------------|
2--------------------------------------|
3-5-5-5-5-5\3-3-3-3-3/5-5--------------|
4-x-x-x-x-x\x-x-x-x-x/x-x--------------|
5-3-3-3-3-3\1-1-1-1-1/3-3--------------|
6--------------------------------------|
  < > < > <   < > < >   <

1--------------------------------------|
2--------------------------------------|
3-9-9-9-9-9\7-7-7-7-7/9-9--------------|
4-9-9-9-9-9\7-7-7-7-7/9-9--------------|
5-7-7-7-7-7\5-5-5-5-5/7-7--------------|
6--------------------------------------|
  < > < > <   < > < >

1--------------------------------------|
2--------------------------------------|
3-5-5-5-5-5\3-3-3-3-3/5-5--------------|
4-x-x-x-x-x\x-x-x-x-x/x-x--------------|
5-3-3-3-3-3\1-1-1-1-1/3-3--------------|
6--------------------------------------|
  < > < > <   < > < >   <

1--------------------------------------|
2--------------------------------------|
3-5-5-5-5-5-5-5-5-7-7-7-7-7-7-7-7------|
4-5-5-5-5-5-5-5-5-7-7-7-7-7-7-7-7------|
5-3-3-3-3-3-3-3-3-5-5-5-5-5-5-5-5------|
6--------------------------------------|
(ALL DOWN STROKE_______________________)

1--------------------------------------|
2--------------------------------------|
3--------------------------------------|
4-9\7-7/9-9\7-7/9-9\7-7/9-9------------|
5-9\7-7/9-9\7-7/9-9\7-7/9-9------------|
6-7\5-5/7-7\5-5/7-7\5-5/7-7------------|

Guitar 2
1-1/5----------------------------------|
2--------------------------------------|
3--------------------------------------|
4--------------------------------------|
5--------------------------------------|
6--------------------------------------|
(use one of them sliders on this part but slowly like on the cd)
[ Tab from: http://www.guitaretab.com/i/insane-clown-posse/27477.html ]
then when the chorus comes up again guitar 1
pretty much does the same thing.
guitar 2 is different though but pretty easy.

guitar 2 (after guitar 1's 2nd chorus)
1--------------------------------------|
2--------------------------------------|
3--------------------------------------|
4--------------------------------------|
5-9~~~~~~~~~~~-------------------------|
6--------------------------------------|
Let the bend/vibrato fade out

guitar 2 (after guitar 1's 3rd chorus)
1--------------------------------------|
2--------------------------------------|
3--------------------------------------|
4--------------------------------------|
5-12~~~~~~~~~~-------------------------|
6--------------------------------------|

guitar 1
1--------------------------------------|
2--------------------------------------|
3--------------------------------------|
4-9\7-7/9------------------------------|
5-9\7-7/9------------------------------|
6-7\5-5/7------------------------------|
then just continue to play this through-out the rest of the song

then guitar 2 somewhere in there towards the end does this
1--------------------------------------|
2--------------------------------------|
3--------------------------------------|
4--------------------------------------|
5-14\1---------------------------------|
6-14\1---------------------------------|
just like the cd it goes slowly up the fret board

then heres the end on guitar 2
1-1/5----------------------------------|
2--------------------------------------|
3--------------------------------------|
4--------------------------------------|
5--------------------------------------|
6--------------------------------------|
slowly with slider then let it sorta fade out

played just like it sounds to me.the only thing im not sure of is the intro to the 
(the sliding part)
so if anyone can help with that please do.

this is my email address
xxaquateen_fanxxx@hotmail.com
Related for I Want My Shit tab
×
I Want My Shit