Song name
# A B C D E F G H I J K L M N O P Q R S T U V W X Y Z

Insane Clown Posse - Nothings Left tab

-------------------------------------------------------------------------------
			     Nothing's Left - Insane Clown Posse
-------------------------------------------------------------------------------
Tuning: E A D G B e

Intro
		
e------1----0----0----1----1--0--0-0-0-0|
B------3----3----3----3----3--3--3-3-3-3|
G------2----0----0----2----0--0--0-0-0-0|
D------0----2----0----0----2--0--0-0-0-0|
A-----------3----2---------3--2--2-2-2-2|
E----------------3------------3--3-3-3-3|
		       

Verse
   Dm	        C(9)         G
e--1-1-1-1-1-1--0-0-0-0-0-0--0-0-0-0-0-0--0-0-0-0-0-0-|
B--3-3-3-3-3-3--3-3-3-3-3-3--3-3-3-3-3-3--3-3-3-3-3-3-|
G--2-2-2-2-2-2--0-0-0-0-0-0--0-0-0-0-0-0--0-0-0-0-0-0-|
D--0-0-0-0-0-0--2-2-2-2-2-2--0-0-0-0-0-0--0-0-0-0-0-0-|
A---------------3-3-3-3-3-3--2-2-2-2-2-2--2-2-2-2-2-2-|
E----------------------------3-3-3-3-3-3--3-3-3-3-3-3-|  Repeat 30x

2nd guitar(fill in)
after 24x of verse
e-------------------------------------------------------------|
B---2/3--3--3~--3--3\2/3--3--3~--3--3~--3/4--3/4--3/4--3/4--4-|
G-------------------------------------------------------------|
D-------------------------------------------------------------|
A-------------------------------------------------------------|
E-------------------------------------------------------------| repeat 10x

Intro
Verse - 2nd guitar(fill in)


| /  slide up
| \  slide down
| h  hammer-on
| p  pull-off
| ~  vibrato
| +  harmonic
| x  Mute note
===============================================================================
Tap to rate this tab
# A B C D E F G H I J K L M N O P Q R S T U V W X Y Z