Song name
# A B C D E F G H I J K L M N O P Q R S T U V W X Y Z

Insane Clown Posse - Lets Go All The Way tab

Pretty simple.
Tuned standard(E A D G B E)

Intro
|--------------------|
|--------------------|
|15b~-17-15----------|
|-----------16-15b~--|
|--------------------|
|--------------------|x1

|------------------------|
|------------------------|
|------------------------|
|3-3-3-x-3-x-3-3-3-x-3-x-|
|3-3---------3-3---------|
|1-1---------1-1---------|x2
     . . . .     . . . .

|------------------------|
|------------------------|
|------------------------|
|2-2-2-x-2-x-2-2-2-x-2-x-|
|2-2---------2-2---------|
|0-0---------0-0---------|x2
     . . . .     . . . . 
Verse
|-----------------------|
|-----------------------|
|-----------------------|
|----3-x-3-x----3-x-3-x-|
|-----------------------|
|-----------------------|x2
     . . . .    . . . . 

|-----------------------|
|-----------------------|
|-----------------------|
|----2-x-2-x----2-x-2-x-|
|-----------------------|
|-----------------------|x2
    . . . .     . . . . 

Then...
|------------------------|
|------------------------|
|------------------------|
|3-3-3-x-3-x-3-3-3-x-3-x-|
|3-3---------3-3---------|
|1-1---------1-1---------|x2
     . . . .     . . . .

|------------------------|
|------------------------|
|------------------------|
|2-2-2-x-2-x-2-2-2-x-2-x-|
|2-2---------2-2---------|
|0-0---------0-0---------|x2
     . . . .     . . . . 

Pick scrape the low E before chorus...
Chorus
|------------------------------------------------|
|------------------------------------------------|
|------------------------------------------------|
|10-10-10-10-10-10-10-10-10-10-10-10-10-10-10-10-|
|10-10-10-10-10-10-10-10-10-10-10-10-10-10-10-10-|
|8--8--8--8--8--8--8--8--8--8--8--8--8--8--8--8--|x2

|--------------------------------|
|--------------------------------|
|--------------------------------|
|8-8-8-8-8-8-8-8-8-8-8-8-8-8-8-8-|
|8-8-8-8-8-8-8-8-8-8-8-8-8-8-8-8-|
|6-6-6-6-6-6-6-6-6-6-6-6-6-6-6-6-|x2

|------------|
|------------|
|------------|
|10--6--8--8-|
|10--6--8--8-|
|8---4--6--6-|x1

So yeah thats it...
PEACE NINJAS!
MMFWCL!
Tap to rate this tab
# A B C D E F G H I J K L M N O P Q R S T U V W X Y Z