Song name
# A B C D E F G H I J K L M N O P Q R S T U V W X Y Z

Insane Clown Posse - Cotton Candy And Popsicles tab

Theres guitar in the "better than this cuz im from motown" part but
i cant seem to fugur it out..., but here is the chorus so here you go...

E|------------------------------------------------------|
B|------------------------------------------------------|
G|-7-7-7-7--4-4-4-4--9-9-9-9-------------7--------------|
D|-7-7-7-7--4-4-4-4--9-9-9-9--3/7-7------7---------14/2-|
A|-5-5-5-5--2-2-2-2--7-7-7-7--5/7-7------5---------14/2-|
E|----------------------------3/5-5----------------12/0-|

E|------------------------------------------------------|
B|------------------------------------------------------|
G|-7-7-7-7--4-4-4-4--9-9-9-9-------------7--------------|
D|-7-7-7-7--4-4-4-4--9-9-9-9--5/7-7------7---------14/2-|
A|-5-5-5-5--2-2-2-2--7-7-7-7--5/7-7------5---------14/2-|
E|----------------------------3/5-5----------------12/0-|

PEACE JUGALLOS/LETTES!
Tap to rate this tab
# A B C D E F G H I J K L M N O P Q R S T U V W X Y Z