Song name
# A B C D E F G H I J K L M N O P Q R S T U V W X Y Z

Insanity - Shock tab

          Band:Insanity
          Song:Shock
          Tuning:(A,D,G,C,F,a,d)
          Tabbed by Ryan Leduc(ibanezmaster@hotmail.com)
          
          
          Intro a    (clean)
          d|----------------------------|
          a|----------------------------|
          F|----------------------------|
          C|----------------------------|
          G|----------------------------|
          A|----------------------------|
          D|-0--0-0-1-1-2-2-2-2-2-2-2-2-|
          
          Intro b    (w\dist)
          d|----------------------------|
          a|----------------------------|
          F|----------------------------|
          C|----------------------------|
          G|----------------------------|
          D|-2--2-2-3-3-4-4-4-4-4-4-4-4-|
          A|-0--0-0-1-1-2-2-2-2-2-2-2-2-|
          
          Verse
          d|---------------------------|
          a|----9b---9b---7b---7b---6b-|
          F|---------------------------|
          C|---------------------------|
          G|--0----0----0----0----0----|
          D|---------------------------|
          A|---------------------------|
          pm ..   ..   ..    ..   ..
          
          
          Chorus
          d|-------------------------------|
          a|-------------------------------|
          F|-------------------------------|
          C|-------------------------------|
          G|-2-----9------7-----9--7--5--2-|
          D|-2-----9------7-----9--7--5--2-|
          A|-0-----7------5-----7--5--3--0-|
          
          Bridge
          same as Intro b
Tap to rate this tab
# A B C D E F G H I J K L M N O P Q R S T U V W X Y Z